Home » E » Emery »

Emery - As Your Voice Fades Bass

Artists:  A B C D E F G H I J K L M N O P Q R S T U V W X Y Z # 

As Your Voice Fades Bass

(ver. 1) Click to play this song!
Emery
 Rating:
3.8/5 (5 votes)
                DADG tune D to Db

why did you die?

Gb--------------------------|
Db-------00000--------------|
Ab------------3233-5-3233-5-|
Db-22222--------------------|

...with me
                ist ending 2nd
Gb--------------|----------|--|
Db----2------4--|----------|--|
Ab-333-3--555-5-|-7-77-777-|--|
Db--------------|----------|--|

the brightness

Gb---------------------------------------------------------------------------|
Db-------------------0h2----------555554444----------------------------------|
Ab-33333333333333333------------------------00000000000000000----------------|
Db----------------------22222222-----------------------------333333333333333-|

dont tell me                                 Repeat This Section As Needed

Gb-------------------------------------------|-------------------|
Db-------------------0h2---------------------|--2----2-----4----4|
Ab-33333333333333333-------------------------|333--333--555---555|
Db-----------------------00000000000000000---|-------------------|

Heres the bass solo, a lot of people think you need a five string but you dont. it
but its not neccessary.

Gb-9-9-12-9-9-7-7-11-7-7-5-5-9-5-5-5-4-2-0--|------------------------------|
Db-----------------------------------------4|2-2-5-2-2-0-0-4-0-0-----2-----|
Ab------------------------------------------|--------------------3-3---3-3-|
Db------------------------------------------|------------------------------|

Continued... once you get to the end, just start back at where i put the lines, and 
as needed.

Gb---------------------------------------------|
Db---------------------------------------------|
Ab-3-2-0-------------------------3-2-3-5-------|
Db-------5-4-2-2-5-2-2-0-0-4-0-0---------------|

while words

Gb-----------------------------|
Db-----0-0--------------0-0----|
Ab---------3-3--3-3---------3-3|
Db-2-2--------------2-2--------|

This Is the last bit, its the same thing over and over again.

Gb-----------------------------------------------------|
Db-------------------------000000000000-222-000-444-000|
Ab-----------3333333333333-----------------------------|
Db-2222222222------------------------------------------|

If You Want to throw in the palm muted part
Let that last note ring out and it will be all good.

Gb-------------------------------------------|
Db------------------------0-000000000-2-0-4-0|
Ab-------------3-33333333--------------------|
Db-2-222222222-------------------------------|
     .........   ........   .........

Well thats it. this is my first tab and im almost 100% sure its right, i play this song
my band all the time and its sounds right.
Please Rate This
            
Submit corrections

↑ Back to top | Tablatures and chords for acoustic guitar and electric guitar, ukulele, drums are parodies/interpretations of the original songs. You may use it for private study, scholarship, research or language learning purposes only