» » »

Elvis Presley - My Baby Left Me Tabs

Artists:  A B C D E F G H I J K L M N O P Q R S T U V W X Y Z # 

My Baby Left Me Tabs

(ver. 2) Click to play this song!
Elvis Presley
 Rating:
4/5 (4 votes)

 My Baby Left Me lessons Tabs too difficult? Try these video lessons and learn fast
 
                           A                    D                    E
      x 0 2 2 2 0          x x 0 2 3 2          0 2 2 1 0 0



Gtr I (E A D G B E) - 'Scotty Moore - Electric Guitar'
Gtr II (E A D G B E) - 'Elvis Presley - Acoustic Guitar'


 Intro
  Q=214(8=s8)
               A7              A
 4/4
  Gtr I (El. Gtr.)
                                  PM-----|
  Wx2          Q   Q  E E q    q  q  E E q
|------------|---------------|--------------|
|------------|----/5---------|-2------------|
|------------|----/6---------|-2-------0----|
|------------|----/5----5-5--|-2------------|
|------------|-0-------------|----4--2---2--|
|------------|---------------|--------------|


                                  1st - 4th Verses
                               $
  A7              A                A
                               Gtr II (Ac. Gtr.)
  W               W                Q   E E  E  E Q    Q  E E E E Q
                                   |   | |  |  | |    |  | | | | |
                                   /   / /  /  / /    /  / / / / /

  PM         PM      PM------------|                     PM------|
  q   Q  E E Q    q  Q  E E Q      Q   Q   +E  E q    q  Q   E E Q
|---------------|--------------||-------------------|----------------|
|----/5---------|-2------------||o----/5---(5)------|-2--------------|
|----/6---------|-2------------||-----/6---(6)------|-2--------------|
|----/5----5-5--|-2------------||-----/5---(5)-5-5--|-2--------------|
|-0----------0--|----4--2-4-2--||o-0----------------|----4---2-4-2---|
|---------------|--------------||-------------------|----------------|


  Q   E E  E  E Q    Q  E E E E Q    Q   E E  E  E Q    Q  E E E E Q
  |   | |  |  | |    |  | | | | |    |   | |  |  | |    |  | | | | |
  /   / /  /  / /    /  / / / / /    /   / /  /  / /    /  / / / / /

  PM                    PM-----------|                     PM------|
  Q   Q   +E  E q    q  Q   E E Q    Q   Q   +E  E q    q  Q   Q   Q
|------------------|---------------|------------------|----------------|
|----/5---(5)------|-2-------------|----/5---(5)------|-2--------------|
|----/6---(6)------|-2-------------|----/6---(6)------|-2--------------|
|----/5---(5)-5-5--|-2-------------|----/5---(5)-5-5--|-2--------------|
|-0----------------|----4---2-4-2--|-0----------------|----4---2---4---|
|------------------|---------------|------------------|----------------|


                                   D
  Q   E E E E Q    Q  E E E E Q    Q  E E E E Q    Q  E E E E Q
  |   | | | | |    |  | | | | |    |  | | | | |    |  | | | | |
  /   / / / / /    /  / / / / /    /  / / / / /    /  / / / / /

  PM                  PM
  Q   Q   E E q    Q  Q   Q   q    Q  q   E E Q    q  E E Q   Q
|----------------|------------3--|----2----------|-2--------------|
|----/5----------|-2----------2--|----1----------|-1--------------|
|----/6----------|-2----------2--|----2-----2----|-2----2---------|
|----/5-----5-5--|-2----------2--|-0----------0--|------------0---|
|-0--------------|----4----------|-0----------0--|----------------|
|----------------|--------x------|---------------|----------------|


                                  E
  Q  E E E E Q    Q  E E E E Q    Q  E E E E Q    Q  E E E E Q
  |  | | | | |    |  | | | | |    |  | | | | |    |  | | | | |
  /  / / / / /    /  / / / / /    /  / / / / /    /  / / / / /

  q  q   E E Q    q  E E E E q    Q  Q   E E q    Q  E E E E q
|----2----------|---------------|----0----------|-4--4-4---------|
|----1----------|-1-------------|----0-----3----|-3----3---3-----|
|----2-----2-2--|-2----2---2----|----1-----1----|-4----------4---|
|------------0--|------------0--|------------2--|----------------|
|-0-------------|---------------|---------------|----------------|
|---------------|---------------|-0-------------|----------------|


                                  A
  Q  E E E E Q    Q  E E E E Q    Q   E E  E  E Q    Q  E E E E Q
  |  | | | | |    |  | | | | |    |   | |  |  | |    |  | | | | |
  /  / / / / /    /  / / / / /    /   / /  /  / /    /  / / / / /

                                                        PM------|
  Q  Q   E E q    Q  E E E E q    Q   Q   +E  E q    Q  Q   E E Q
|----0----------|-4----4---4-4--|------------------|----------------|
|----0-----3----|-3----3---3-3--|----/5---(5)------|-2--------------|
|----1-----1-1--|-4--x-------4--|----/6---(6)------|-2--------------|
|----------2-2--|---------------|----/5---(5)-5-5--|-2--------------|
|---------------|---------------|-0----------------|----4---2-4-2---|
|-0-------------|---------------|------------------|----------------|


                                        Guitar Solo
             To Coda
                                         A
  Q   E E  E  E Q      Q  E E E E Q      Q   E E  E  E Q    Q  E E E E Q
  |   | |  |  | |      |  | | | | |      |   | |  |  | |    |  | | | | |
  /   / /  /  / /      /  / / / / /      /   / /  /  / /    /  / / / / /

                          PM------|                            PM--------|
  Q   Q   +E  e e E    Q  Q   E E Q      Q   Q   +e  E q    q  Q   E E E E
|--------------------|----------------||----/9---(9)------|-5--------------|
|----/5---(5)--------|-2-------------o||----/8---(8)------|-5--------------|
|----/6---(6)--------|-2--------------||----/9---(9)---0--|-6--2-----------|
|----/5---(5)-5-5----|-2--------------||-------------0----|----2-----2-----|
|-0------------------|----4---2-4-2--o||-0----------------|--------4---4-2-|
|-0------------------|----------------||------------------|----------------|


  Q   E E  E  E Q    Q  E E E E Q     Q   E E  E  E Q    Q  E E E E Q
  |   | |  |  | |    |  | | | | |     |   | |  |  | |    |  | | | | |
  /   / /  /  / /    /  / / / / /     /   / /  /  / /    /  / / / / /

                            PM--------|                         PM----|
  q   Q   +e  E q    q  q   E E E E   Q   Q   +e  E q    q  q   E E E E
|----/9---(9)------|-5--------------|----/9---(9)------|-5---------------|
|----/8---(8)-0----|-5--------------|----/8---(8)-0----|-5--2------------|
|----/9---(9)---0--|-6--2-----------|----/9---(9)---0--|-6--2-----2------|
|------------------|----2-----2-----|------------------|----2------------|
|-0----------------|--------4---4-2-|-0----------------|--------4---4-2--|
|------------------|----------------|------------------|-----------------|


                                      D
  Q   E E  E  E Q    Q  E E E E Q     Q  E E  E  E Q    Q   E E  E  E Q
  |   | |  |  | |    |  | | | | |     |  | |  |  | |    |   | |  |  | |
  /   / /  /  / /    /  / / / / /     /  / /  /  / /    /   / /  /  / /

  PM                        PM--------|
  Q   Q   +E  E Q    q  q   E E E E   Q  Q   +E  E q    Q.    E +E  E q
|----/9---(9)------|-5--------------|----2---(2)------|-2-----------2-----|
|----/8---(8)-0----|-5--------------|----1---(1)------|-1-----1-(1)-1-----|
|----/9---(9)---0--|-6--2-----------|----2---(2)-2----|-2-----2-(2)-2-----|
|------------------|----2-----2-----|--------------0--|---------------0---|
|-0----------------|--------4---4-2-|-0---------------|-------------------|
|------------------|----------------|-----------------|-------------------|


                                       A
  Q  E E  E  E Q    Q   E E  E  E Q    Q   E E  E  E Q    Q  E E E E Q
  |  | |  |  | |    |   | |  |  | |    |   | |  |  | |    |  | | | | |
  /  / /  /  / /    /   / /  /  / /    /   / /  /  / /    /  / / / / /

  PM           PM                 PM                         PM
  Q  Q   +E  E Q    Q.    E +E  E Q    Q   Q   +e  E Q    q  Q   E E Q
|----2---(2)------|-2-----------2----|------------------|-----------------|
|----1---(1)------|-1-----1-(1)-1----|----/5---(5)-0----|-2---------------|
|----2---(2)-2----|-2-----2-(2)-2----|----/6---(6)-0-0--|-2--------0------|
|--------------0--|---------------0--|----/5---(5)------|-2---------------|
|-0---------------|------------------|-0----------------|----4---2---2\---|
|-----------------|------------------|------------------|-----------------|


                                     E
  Q   E E  E  E Q    Q  E E E E Q    Q  E E E E Q    Q  E E  E  E Q
  |   | |  |  | |    |  | | | | |    |  | | | | |    |  | |  |  | |
  /   / /  /  / /    /  / / / / /    /  / / / / /    /  / /  /  / /

  PM                    PM------|
  Q   Q   +E  E q    q  Q   E E Q    Q  Q   E E q    Q  E E +E  E q
|------------------|---------------|----0----------|-0----------0-----|
|----/5---(5)------|-2-------------|----0-----3----|-0----3-(3)-------|
|----/6---(6)------|-2--------0----|----1-----1----|-1----1-(1)---1---|
|----/5---(5)-5-5--|-2-------------|------------2--|--------------2---|
|-0----------------|----4---2---2--|------------2--|------------------|
|------------------|---------------|-0----------0--|------------------|


  D                                 A
  Q  E E E E Q    Q  E E  E  E Q    Q   E E E E Q    Q  E E E E Q
  |  | | | | |    |  | |  |  | |    |   | | | | |    |  | | | | |
  /  / / / / /    /  / /  /  / /    /   / / / / /    /  / / / / /

                                                        PM------|
  q  q   E E q    q  E E +E  E q    Q   Q   E E Q    q  Q   E E Q
|----2----------|-2----------2----|----------------|----------------|
|----1-----1----|-1----1-(1)-1----|----/5----------|-2--------------|
|----2-----2----|-2----2-(2)------|----/6----------|-2--------0-----|
|------------0--|----x---------0--|----/5-----5-5--|-2----------4---|
|-0----------0--|-----------------|----------------|----4---2-------|
|---------------|-----------------|-5--------------|----------------|


                      D.S. al Coda &
                                      A
  Q   E E E E Q    Q  E E E E Q       Q  E E E E Q
  |   | | | | |    |  | | | | |       |  | | | | |
  /   / / / / /    /  / / / / /       /  / / / / /

                                         PM-----------
  q   q   E E Q    q  Q   E E E E     q  Q   Q   Q
|----------------|-----------------||---------------||
|----/5----------|-2---------------||-2-------------||
|----/6----------|-2--------0------||-2-------------||
|----/5-----5-5--|-2----------5s4--||-2-------------||
|-0--------------|----4---2--------||----4---2------||
|----------------|-----------------||------------0--||


 Outro
  E
  Q  E E  E  E Q    Q   E E  E  E Q
  |  | |  |  | |    |   | |  |  | |
  /  / /  /  / /    /   / /  /  / /

 -|
  Q  Q   +E  E q    Q.    E +E  E Q
|----0---(0)------|-0-------------0---|
|----0---(0)-3----|-0-----3-(3)-0-0---|
|------------1----|-1-----1-(1)-------|
|--------------2--|-------------------|
|-----------------|-------------------|
|-0---------------|-------------------|


  D                                   A
  Q  E E E E Q    Q  E E  E  E Q      Q   E E  E  E Q    Q  E E E E Q
  |  | | | | |    |  | |  |  | |      |   | |  |  | |    |  | | | | |
  /  / / / / /    /  / /  /  / /      /   / /  /  / /    /  / / / / /

                                                            PM------|
  q  Q   E E Q    Q  E E +E  E Q      q   Q   +E  E q    q  Q   E E Q    5x
|----2----------|-2---------------||-------------------|-----------------||
|----1-------1--|-1----1-(1)-1----||o----/5---(5)------|-2--------0-----o||
|----2-----2-2--|-2----2-(2)-2-2--||-----/6---(6)------|-2--------0------||
|---------------|-----------------||-----/5---(5)-5-5--|-2---------------||
|-0-------------|-----------------||o-0----------------|----4---2---2---o||
|---------------|-----------------||-------------------|-----------------||

            
Submit corrections


        My Baby Left Me lessons Hard to play? Try these video lessons and learn fast My Baby Left Me lessons
        
↑ Back to top | Tablatures and chords for acoustic guitar and electric guitar, ukulele, drums are parodies/interpretations of the original songs. You may use it for private study, scholarship, research or language learning purposes only