» » »

Elvis Presley - Love Me Tender Tabs

Artists:  A B C D E F G H I J K L M N O P Q R S T U V W X Y Z # 

Love Me Tender Tabs

(ver. 7) Click to play this song!
Elvis Presley
 Rating:
4.1/5 (31 vote)

 Love Me Tender lessons Tabs too difficult? Try these video lessons and learn fast
 
                [Verse 1]
       
e|-----------------|--------------|--------------|-0------------------------|
B|-------1---0----1|---3-----3---1|---0-----0---1|-1---1--0--1--------------|
G|---0-------------|------2-------|------2-------|-0------------------------|
D|-----------------|--------------|--------------|--------------------------|
A|-----------------|--------------|--------------|--------------------------|
E|-----------------|--------------!--------------|--------------------------|

e|-----------------|---------------------------------------------------------|
B|---3------3----1-|---0-------0---1-----------------------------------------|
G|------2----------|-------2-------------------------------------------------|
D|-----------------|---------------------------------------------------------|
A|-----------------|---------------------------------------------------------|
E|-----------------|---------------------------------------------------------|


[Chorus]

e|--0----0---0---0--|--0----0----0----0---|--------------------0--|---0---0---1--0-|
B|--1---------------|--1--------------0---|------3----1---3--------|---1-----------|
G|--0---------------|--0--------------1---|----------------------|---0-------------|
D|------------------|---------------------|-----------------------|----------------|
A|------------------|---------------------|-----------------------|----------------|
E|------------------|---------------------|-----------------------|----------------|

e|------------------|--------------------------------------------------------|
B|----3------3--1---|---0-------0---1----------------------------------------|
G|--------2---------|-------2------------------------------------------------|
D|------------------|--------------------------------------------------------|
A|------------------|--------------------------------------------------------|
E|------------------|--------------------------------------------------------|


[Verse 2]

e|-----------------|--------------|--------------|-0------------------------|
B|-------1---0----1|---3-----3---1|---0-----0---1|-1---1--0--1--------------|
G|---0-------------|------2-------|------2-------|-0------------------------|
D|-----------------|--------------|--------------|--------------------------|
A|-----------------|--------------|--------------|--------------------------|
E|-----------------|--------------!--------------|--------------------------|

e|-----------------|---------------------------------------------------------|
B|---3------3----1-|---0-------0---1-----------------------------------------|
G|------2----------|-------2-------------------------------------------------|
D|-----------------|---------------------------------------------------------|
A|-----------------|---------------------------------------------------------|
E|-----------------|---------------------------------------------------------|


[Chorus]

e|--0----0---0---0--|--0----0----0----0---|--------------------0--|---0---0---1--0-|
B|--1---------------|--1--------------0---|------3----1---3--------|---1-----------|
G|--0---------------|--0--------------1---|----------------------|---0-------------|
D|------------------|---------------------|-----------------------|----------------|
A|------------------|---------------------|-----------------------|----------------|
E|------------------|---------------------|-----------------------|----------------|

e|------------------|--------------------------------------------------------|
B|----3------3--1---|---0-------0---1----------------------------------------|
G|--------2---------|-------2------------------------------------------------|
D|------------------|--------------------------------------------------------|
A|------------------|--------------------------------------------------------|
E|------------------|--------------------------------------------------------|

[verse 3]

e|-----------------|--------------|--------------|-0------------------------|
B|-------1---0----1|---3-----3---1|---0-----0---1|-1---1--0--1--------------|
G|---0-------------|------2-------|------2-------|-0------------------------|
D|-----------------|--------------|--------------|--------------------------|
A|-----------------|--------------|--------------|--------------------------|
E|-----------------|--------------!--------------|--------------------------|

e|-----------------|---------------------------------------------------------|
B|---3------3----1-|---0-------0---1-----------------------------------------|
G|------2----------|-------2-------------------------------------------------|
D|-----------------|---------------------------------------------------------|
A|-----------------|---------------------------------------------------------|
E|-----------------|---------------------------------------------------------|


[Outro]

e|--0----0---0---0--|--0----0----0----0---|--------------------0--|---0---0---1--0-|
B|--1---------------|--1--------------0---|------3----1---3-------|---1------------|
G|--0---------------|--0--------------1---|-----------------------|---0------------|
D|------------------|---------------------|-----------------------|----------------|
A|------------------|---------------------|-----------------------|----------------|
E|------------------|---------------------|-----------------------|----------------|

e|------------------|--------0----------0------------------------------------|
B|----3------3--1---|---0---------3-----1------------------------------------|
G|--------2---------|-------------------0------------------------------------|
D|------------------|--------------------------------------------------------|
A|------------------|--------------------------------------------------------|
E|------------------|--------------------------------------------------------|
            
Submit corrections


        Love Me Tender lessons Hard to play? Try these video lessons and learn fast Love Me Tender lessons
        
↑ Back to top | Tablatures and chords for acoustic guitar and electric guitar, ukulele, drums are parodies/interpretations of the original songs. You may use it for private study, scholarship, research or language learning purposes only