» » »

Elvis Presley - Love Me Tabs

Artists:  A B C D E F G H I J K L M N O P Q R S T U V W X Y Z # 

Love Me Tabs

(ver. 2) Click to play this song!
Elvis Presley
 Rating:
4/5 (4 votes)

 Love Me lessons Tabs too difficult? Try these video lessons and learn fast
 
                Elvis Presley - Love Me Tender
(Standard Tuning)


Strum pattern:
     D                                               E7
E||-------2~--------2~---|--------2~--------2~---|-------0~--------0~---|
B||-------3~--------3~---|--------3~--------3~---|-------3~--------3~---|
G||-------2~--------2~---|--------2~--------2~---|-------1~--------1~---|
D||--0--------------0~---|---0--------------0~---|-------2~--------2~---|
A||------------0---------|-------------0---------|-------2~---2---------|
E||----------------------|-----------------------|--0-------------------|
                             Love me   ten- der     Love me   sweet
--- And so on....

~ = Strum (Low E to high e)

    D
    Love me tender,
    E7
    love me sweet,
    A7           D
    never let me go.
    D                E7
    You have made my life complete,
    A7             D
    and I love you so.

    D       F#
    Love me tender,
    Bm      D7
    love me true,
    G      Gm        D
    all my dreams fulfilled.
    D      B7      E7
    For my darlin' I love you,
    A7           D
    and I always will.


    Love me tender,
    love me long,
    take me to your heart.
    For it's there that I belong,
    and we'll never part.

    Love me tender,
    love me dear,
    tell me you are mine.
    I'll be yours through all the years,
    till the end of time.

    (When at last my dreams come true
    Darling this I know
    Happiness will follow you
    Everywhere you go).


End:
e||--2~--------5----5----|--2----------------||
B||--3~------------------|-------------------||
G||--2~---2--------------|-------------------||
D||--0~------------------|-------------------||
A||----------------------|-------------------||
E||----------------------|-------------------||
            
Submit corrections


        Love Me lessons Hard to play? Try these video lessons and learn fast Love Me lessons
        
↑ Back to top | Tablatures and chords for acoustic guitar and electric guitar, ukulele, drums are parodies/interpretations of the original songs. You may use it for private study, scholarship, research or language learning purposes only