» » »

Elvis Presley - Jailhouse Rock Tabs

Artists:  A B C D E F G H I J K L M N O P Q R S T U V W X Y Z # 

Jailhouse Rock Tabs

(ver. 3) Click to play this song!
Elvis Presley
 Rating:
4/5 (4 votes)

 Jailhouse Rock lessons Tabs too difficult? Try these video lessons and learn fast
 
                			     Elvis Presley - Jailhouse Rock


Intro/verse
e|---------------------------------------------------------------------------|
B|---------------------------------------------------------------------------|
G|--8---9--------------------------------------------------------------------|
D|--8---9--------------------------------------------------------------------|
A|--6---7--------------------------------------------------------------------|
E|---------------------------------------------------------------------------|

chorus
e|---------------------------------------------------------------------------|
B|---------------------------------------------------------------------------|
G|---------------------------------------------------------------------------|
D|----------2-2-4-2----------2-2-4-2-----------------------------------------|
A|--0-0-4-4----------0-0-4-4------------------2-2-4-2---------2-2-4-2--------|
E|------------------------------------0-0-4-4---------0-0-4-4----------------|
 (cont'd)
e|---------------------------------------------------------------------------|
B|---------------------------------------------------------------------------|
G|---------------------------------------------------------------------------|
D|----------4-4-6-4---------2-2-4-2------------------------------------------|
A|--2-2-6-6---------0-0-4-4-----------------2-2-4-2---------2-2/4------------|
E|----------------------------------0-0-4-4---------0-0-4-4------------------|

 solo
e|-12-12-12--12-12-12--12-12-12-12-12-12---------------------------------------|
B|------------------------------------------9--9--9--9--9--9---9--9--9--9--9--9|
G|-12-12-12--12-12-12--12-12-12-12-12-12---12b13-13-12b13-13--13-13-13-13-13-13|
D|-----------------------------------------------------------------------------|
A|-----------------------------------------------------------------------------|
E|-----------------------------------------------------------------------------|

e|---------------------------------------------------------------------------|
B|---------------------------------------------------------------------------|
G|---------------------------------1-------1---1111-----------------------------|
D|---------------------------------2-------2---2222-----------------------------|
A|-----5------5------4------4------2-------2---2222-----------------------------|
E|-7-7-7--7-7-7--5-5-5--5-5-5--0-0-0-0-0-0-0-0-0000-----------------------------|
            
Submit corrections


        Jailhouse Rock lessons Hard to play? Try these video lessons and learn fast Jailhouse Rock lessons
        
↑ Back to top | Tablatures and chords for acoustic guitar and electric guitar, ukulele, drums are parodies/interpretations of the original songs. You may use it for private study, scholarship, research or language learning purposes only