Home » E » Elvis Presley »

Elvis Presley - How Great Thou Art Tabs

Artists:  A B C D E F G H I J K L M N O P Q R S T U V W X Y Z # 

How Great Thou Art Tabs

(ver. 2) Click to play this song!
Elvis Presley
 Rating:
4/5 (4 votes)
                Song title: How Great Thow Art
Tuning: Standard


Great song. One of his best if you ask me but you be the judge

Intro:
======
e|--------------------------------------------|
B|-0--------0---------------0-1---------------|
G|---2--0----------0---0-2--------0-----------|
D|-0------4---2-0----4----------4-------------|
A|------3-------2--2-0-2-3------3-3--3-2-0-2-0|
E|--------------------------------------------|


Verse 1
=======
e|---------------------------------------------------------------------|
B|---------------------------------------------------------------------|
G|---------------------------------------------------------------------|
D|-0-0-0----0-0-0-2-2---2--2-2-2-0---0-0-------0-0-0----0-0-0-2-2----2-|
A|-------2------------3------------2-----3-3-2-------2------------3----|
E|---------------------------------------------------------------------|

e|---------------------|
B|---------------------|
G|---------------------|
D|-2-2-2-0---0-0-------|
A|---------2-----3-3-2-|
E|---------------------|


Chorus:
======
e|---------------------------------------------------------------------|
B|-------0---------------------------------------0---------------------|
G|-----0---2-0---0-------0-0-------------------0---2-0---0------0---0-2|
D|-0-0---0-----4---2-0-------4------2-0----0-0---0-----4---2-0----4----|
A|-----------3-------2---2-2---0--3-----2--2-2-2-----3-------2--2-0-2-3|
E|---------------------------------------------------------------------|

e|----------|
B|-0-2------|
G|-------0--|
D|-----4----|
A|-----3-2--|
E|----------|


   There you go. All you have to do is play that four times and your in
buisnes!
            
Submit corrections

↑ Back to top | Tablatures and chords for acoustic guitar and electric guitar, ukulele, drums are parodies/interpretations of the original songs. You may use it for private study, scholarship, research or language learning purposes only