» » »

Elvis Presley - Good Rockin Tonight Tabs

Artists:  A B C D E F G H I J K L M N O P Q R S T U V W X Y Z # 

Good Rockin Tonight Tabs

(ver. 2) Click to play this song!
Elvis Presley
 Rating:
4/5 (4 votes)

 Good Rockin Tonight lessons Tabs too difficult? Try these video lessons and learn fast
 
                          E7                   A7                   B7
      0 2 2 1 3 0          x 0 2 0 2 0          x 2 1 2 0 2



Gtr I (E A D G B E) - 'Scotty Moore - Electric Guitar'
Gtr II (E A D G B E) - 'Elvis Presley - Acoustic Guitar'


 Chorus
  Q=168(8=s8)
             E7
 4/4
  Gtr II (Ac. Gtr.)
  W          E E E  E  E E E E   E E E E E E E E   E E E E  E  E E E
             | | |  |  | | | |   | | | | | | | |   | | | |  |  | | |
             / / /  /  / / / /   / / / / / / / /   / / / /  /  / / /

  Gtr I (El. Gtr.)
  W          E E E  E  E e E e   E e E e E E E e   E e E E +E  E E e
|----------|-x-x-x-------------|-------0-----0---|-------0-(0)---0----|
|----------|-x-x-x-(3)---3---0-|---3---0---3-3-0-|---3---------3-3-0--|
|----------|-x-x-x-------------|-------------1---|---------------1----|
|----------|-------------------|-----------------|--------------------|
|----------|-------------------|-----------------|--------------------|
|----------|-------------------|-----------------|--------------------|


                      A7                                   E7
  E E E E  E  E E E   E E  E E E E E E   E E E E E E E E   E E E E  E  E E E
  | | | |  |  | | |   | |  | | | | | |   | | | | | | | |   | | | |  |  | | |
  / / / /  /  / / /   / /  / / / / / /   / / / / / / / /   / / / /  /  / / /

  PM  PM
  E E E E +E  e Q     Q    E E E E E E   E E E E E E E E   E e E E +E  E E E
|-------0-(0)-------|--------3-------3-|-------3-----2-0-|---0---------0-0-0--|
|---3---------3-----|-----^2-----2-2---|---2-------2-2-0-|-------3-(3)--------|
|-1---1-------------|-----^2-------2---|-----2-----------|--------------------|
|-------------------|-----^2-----------|-----------------|--------------------|
|-------------------|------------------|-----------------|--------------------|
|-------------------|------------------|-----------------|--------------------|


  E E E E  E  E E E   E E E E E E E E   E E E E  E  E E E    E  E E E E E E E
  | | | |  |  | | |   | | | | | | | |   | | | |  |  | | |    |  | | | | | | |
  / / / /  /  / / /   / / / / / / / /   / / / /  /  / / /    /  / / / / / / /

  E Q   E +E  E e E   E E E E E E Q     e Q   E +E  Q   E   +E  E Q   E E E E
|-------0-(0)-----0-|---0-0-----------|-0-----0-(0)-----0-|-(0)---------7---7--|
|---3---------3-3---|-----3-0---3p0---|---3---------3-----|-----0-------7---7--|
|---------------1---|-----1-----------|-------------------|-------------7---7--|
|-------------------|-----------------|-------------------|--------------------|
|-------------------|-----------------|-------------------|--------------------|
|-------------------|-----------------|-------------------|--------------------|


                      A7                  B7                  E7
   E  E E E E E E E   E E E E  E  E E E   E E E E  E  E E E   E E E E E E E E
   |  | | | | | | |   | | | |  |  | | |   | | | |  |  | | |   | | | | | | | |
   /  / / / / / / /   / / / /  /  / / /   / / / /  /  / / /   / / / / / / / /

  +E  E q   E e Q     q   Q   +E  E Q     Q   Q   +E  E Q     E E E E E E Q
|-(7)-7-7-----------|-------------5-----|-------------------|---3s4---3s4------|
|-(7)-7-7-----0-----|-----8---(8)---8---|-----0---(0)-------|---4s5---4s5------|
|-(7)-7-7-----------|-----6---(6)---6---|-----2---(2)---2---|---3s4---3s4------|
|-------------------|---------------7---|-----1---(1)-------|------------------|
|-------------------|-------------------|-----2---(2)-2-----|------------------|
|-------------------|-5-----------------|-------------------|------------------|


                    1st Verse
                     E7
  E E E E E E E E    E E E E  E  E  E E
  | | | | | | | |    | | | |  |  |  | |
  / / / / / / / /    / / / /  /  /  / /

  E E E E E E Q      Q   E E +E  Q.
|---3s4---3s4-----||--------------------|
|---4s5---4s5-----||-------3-(3)p0------|
|---3s4---3s4-----||--------------------|
|-----------------||--------------------|
|-----------------||--------------------|
|-----------------||--------------------|


  E E E E  E  E E E    E  E E E  E  E E E
  | | | |  |  | | |    |  | | |  |  | | |
  / / / /  /  / / /    /  / / /  /  / / /

  Q   E E +E  Q   E   +E  E E E +E  Q   E
|-0-----0-(0)-----0-|-(0)-----0-(0)--------|
|-----3-------3-----|-----0h3-------3------|
|-------------------|----------------------|
|-------------------|----------------------|
|-------------------|----------------------|
|-------------------|----------------------|


  B7                E7
  E E E E E E E E    E  E E E E E E E   E E E E E E E E   E E E E E E E E
  | | | | | | | |    |  | | | | | | |   | | | | | | | |   | | | | | | | |
  / / / / / / / /    /  / / / / / / /   / / / / / / / /   / / / / / / / /

  E E E E E E E E   +E  E q   E E E E   E E E E q   E E   q   Q   H
|-------2---2-2-0-|-(0)-0-----x-x---x-|-x-----x-x-----0-|------------------|
|---0---0---0-0---|-------1---x-x---x-|-x-----x-x-------|------------------|
|---2---2---2-2---|-------------------|-----------------|------------------|
|---1-1-1-1-1-1---|-------------------|-----------------|------------------|
|-2---2---2---2---|-------------------|-----------------|-2----------------|
|-----------------|-------------------|-----------------|-0----------------|


                    A7
  E E E E E E E E   E E E E  E  E E E
  | | | | | | | |   | | | |  |  | | |
  / / / / / / / /   / / / /  /  / / /

  W                 Q   Q   +E  E q
|-----------------|-----3---(3)-3-3---|
|-----------------|-----2---(2)-2-2---|
|-----------------|-------------2-2---|
|-----------------|-----2---(2)-------|
|-----------------|-------------------|
|-----------------|-------------------|


  B7                  E7
  E E E E  E  E E E   E E E E  E  E E  E
  | | | |  |  | | |   | | | |  |  | |  |
  / / / /  /  / / /   / / / /  /  / /  /

  Q   Q   +E  E Q     Q   Q   +E  E E  E
|-------------------|-----0---(0)---------|
|-----0---(0)-0-0---|-----0---(0)-3-------|
|-----2---(2)-2-2---|-----1---(1)---1-^1--|
|-----1---(1)-1-1---|-----------------^2--|
|-------------------|---------------------|
|-------------------|-0-------------------|


                       Guitar Solo
                        E7
  E E E E E  E  E  E     E  E  E  E  E  E  E  E
  | | | | |  |  |  |     |  |  |  |  |  |  |  |
  / / / / /  /  /  /     /  /  /  /  /  /  /  /

  Q   Q   E  E  E  E     E  E  E  E  E  E  E  E
|-0---------12-12-12-||-12-12-12-12-12-12-12-12\-|
|-0---------12-12-12-||-12-12-12-12-12-12-12-12\-|
|--------------------||--------------------------|
|--------------------||--------------------------|
|--------------------||--------------------------|
|--------------------||--------------------------|


  E E E E E E E E   E E E E E E E E
  | | | | | | | |   | | | | | | | |
  / / / / / / / /   / / / / / / / /

  E E E E E E E E   E E E E E E E E
|-7-7-7-7-7-7-7-7-|-0---0---0---0----|
|-8-8-8-8-8-8-8-8-|---5---5---5---5--|
|-----------------|------------------|
|-----------------|------------------|
|-----------------|------------------|
|-----------------|------------------|


                  $
                    A7
  E E E E E E E E    E   E  E E  E  E E E
  | | | | | | | |    |   |  | |  |  | | |
  / / / / / / / /    /   /  / /  /  / / /

  E E E E E E Q     +E   E  E E  E  E Q
|-0---0---0---0---|-(0)-------------------|
|---5---5---5-----|-----------------------|
|-----------------|-----11s12---11s12-----|
|-----------------|-----10s11---10s11-----|
|-----------------|-----------------------|
|-----------------|-----------------------|


                        E7
  E  E  E E  E  E E E   E E E E E E E E
  |  |  | |  |  | | |   | | | | | | | |
  /  /  / /  /  / / /   / / / / / / / /

  E  E  E E  E  E Q     E E E E E E Q
|---------------------|------------------|
|---------------------|---8s9---8s9------|
|---11s12---11s12-----|---8s9---8s9------|
|---10s11---10s11-----|------------------|
|---------------------|------------------|
|---------------------|------------------|


                    B7
  E E E E E E E E   E  E  E E  E  E E E
  | | | | | | | |   |  |  | |  |  | | |
  / / / / / / / /   /  /  / /  /  / / /

  E E E E E E Q     E  E  E E  E  E Q
|-----------------|---------------------|
|---8s9---8s9-----|----9s10----9s10-----|
|---8s9---8s9-----|---10s11---10s11-----|
|-----------------|---------------------|
|-----------------|---------------------|
|-----------------|---------------------|


                         E7
  E  E  E E  E  E  E E   E E E E E E E E
  |  |  | |  |  |  | |   | | | | | | | |
  /  /  / /  /  /  / /   / / / / / / / /

  E  E  E E  E  E  e E   Q   Q   E E E E
|----------------------|-----0------------|
|----9s10----9s10s=9---|-----0-----3------|
|---10s11---10s11s10---|-----1-------1-1--|
|----------------------|-----2---2--------|
|----------------------|------------------|
|----------------------|-0----------------|


                      2nd & 3rd Verses
                       E7
  E E E E  E  E E E    E E E E E E E E   E E E E E E E E   E E E E E E E E
  | | | |  |  | | |    | | | | | | | |   | | | | | | | |   | | | | | | | |
  / / / /  /  / / /    / / / / / / / /   / / / / / / / /   / / / / / / / /

                       PM------------------------------------------------|
  E E E E +Q    Q      E E E E E E E E   E E E E E E E E   E E E E E E E E
|-0-----0-(0)-------||-----------------|-----------------|------------------|
|---3p0---------0---||-----------------|-----------------|------------------|
|---------------1---||-----------------|-----------------|------------------|
|-------------------||-----------------|-2-2-------------|------------------|
|-------------------||---------2-2-4-4-|-----4-4-2-2-----|---------2-2-4-4--|
|-------------------||-0-0-4-4---------|-------------4-0-|-0-0-4-4----------|


                    A7                                  E7
  E E E E E E E E   E E E E E E E E   E E E E E E E E   E E E E E E E E
  | | | | | | | |   | | | | | | | |   | | | | | | | |   | | | | | | | |
  / / / / / / / /   / / / / / / / /   / / / / / / / /   / / / / / / / /

  PM------------------------------------------------------------------|
  E E E E q   q     E E E E E E E E   E E E E E E Q     E E E E E E E E
|-----------------|-----------------|-----------------|------------------|
|-----------------|-----------------|-----------------|------------------|
|-----------------|-----------------|-2-2-------------|------------------|
|-2-2-------------|---------2-2-4-4-|-----4-4-2-2-----|------------------|
|---------2---4---|-0-0-4-4---------|-------------4---|---------2-2-4-4--|
|-----4-4---------|-----------------|-----------------|-0-0-4-4----------|


                                               To Coda
                    B7                                   E7
  E E E E E E E E   E E E E E E E E   E E E E E E E E    E E E E  E  E E  E
  | | | | | | | |   | | | | | | | |   | | | | | | | |    | | | |  |  | |  |
  / / / / / / / /   / / / / / / / /   / / / / / / / /    / / / /  /  / /  /

  PM-----------------------------------------------------|
  E E E E E E E E   E E E E E E E E   E E E E E E E E    q   Q    e  Q    e
|-----------------|-----------------|------------------|-----4---------------|
|-----------------|-----------------|------------------|-------------3-------|
|-----------------|-----------------|------------------|---------(4)-----(4)-|
|-2-2-------------|-----------------|------------------|---------------------|
|---------2-2-----|-2-2-------------|-2-2-0-0----------|---------------------|
|-----4-4-----4-4-|-----4-4-2-2-4-4-|---------4-4-2-2--|-0-------------------|


                      Chorus
                       E7
  E E E E  E  E E E    E E E E E E E E   E E E E E E E  E    E E E E E E E E
  | | | |  |  | | |    | | | | | | | |   | | | | | | |  |    | | | | | | | |
  / / / /  /  / / /    / / / / / / / /   / / / / / / /  /    / / / / / / / /

                PM---------------------------------------------------------|
  Q   E E +Q    q      q   q   E E q     e e e e e e e  e    e e e e e e e e
|-0-----0-(0)-------||-----------0-----|-------0-------(0)-|-------0-------0--|
|-----3-------------||-----------------|---3-------3-------|---3-------3------|
|-------------------||-----------------|-------------------|------------------|
|---------------x---||-----------------|-------------------|------------------|
|---------------x---||-2-------2-------|---------2---------|---------2--------|
|-------------------||-0---4-------4---|-0---4-------4-----|-0---4-------4----|


                      A7
  E E E E  E  E E E   E E E E  E  E E E
  | | | |  |  | | |   | | | |  |  | | |
  / / / /  /  / / /   / / / /  /  / / /

  PM----------|
  e e e E +E  e Q     q   e E  e  e e e
|-------0-(0)-------|-------3-(3)-----3-|
|-------------3-----|-------------2-----|
|---1---------------|-----2---------2---|
|-------------------|-2---2---------2---|
|-------------------|-0--------0--------|
|-0---4-------------|-------------------|


                      E7
   E  E E E E E E E    E  E E E E E E E
   |  | | | | | | |    |  | | | | | | |
   /  / / / / / / /    /  / / / / / / /

   q    e e E E e E   +E  e E e E e E e
|-(3)-----3---3---0-|-(0)-0---0-------0--|
|-------------------|-------------3------|
|-------2-------2---|--------------------|
|-------2-------2---|--------------------|
|--0--------0-------|--------------------|
|-------------------|--0-----------------|
                       W


   E  E E E E E E E   E E E E E E E E    E  E E E  E  E E E   E E E E E E E E
   |  | | | | | | |   | | | | | | | |    |  | | |  |  | | |   | | | | | | | |
   /  / / / / / / /   / / / / / / / /    /  / / /  /  / / /   / / / / / / / /

   E  e E e E e Q     H       E e Q      E  e E E +Q    E e   E e E e E e Q
|---------0---------|-----------0-----|---------0-(0)-------|---0---0----------|
|-----3-------0-----|-----------------|-----3-------------0-|-----------0------|
|-------------------|-----------------|---------------------|------------------|
|-------------------|-----------------|---------------------|------------------|
|-------------------|-----------------|---------------------|------------------|
|-(0)---------------|---------0-------|-(0)-----------------|------------------|
  +W                  H       H         +W


                    A7                B7                 E7
  E E E E E E E E   E E E E E E E E   E E E  E E E E E    E  E E E E E E E
  | | | | | | | |   | | | | | | | |   | | |  | | | | |    |  | | | | | | |
  / / / / / / / /   / / / / / / / /   / / /  / / / / /    /  / / / / / / /

  q   Q   Q   Q     Q   E E E E E E   E E E  E Q   q      E  E E E E E Q
|-----------------|-------5-------0-|------------------|-----3s4---3s4------|
|-----------------|-----------------|------------------|-----4s5---4s5------|
|-----------------|-----------6-----|-------11---------|-----3s4---3s4------|
|-2---2-----------|-----------------|---9----9-----9---|--------------------|
|-2---2-----------|-----7-----------|------------------|--------------------|
|---------7---6---|-5-------5---6---|-7--------7-------|-(0)----------------|


                    Guitar Solo
                     E7
  E E E E E E E E     E  E E E E E E E
  | | | | | | | |     |  | | | | | | |
  / / / / / / / /     /  / / / / / / /

  E E E E E E E E    +E  E E E E E E E
|---3s4---3s4---0-||-(0)-0---0---0---0-|
|---4s5---4s5---5-||-(5)---5---5---5---|
|---3s4---3s4-----||-------------------|
|-----------------||-------------------|
|-----------------||-------------------|
|-----------------||-------------------|


   E E E E E E E E    E  E  E  E  E  E  E  E
   | | | | | | | |    |  |  |  |  |  |  |  |
   / / / / / / / /    /  /  /  /  /  /  /  /

   E E E E E E E E    E  E  E  E  E  E  E  E
|-/7-7-7-7-7-7-7-7-|-12-12-12-12-12-12-12-12--|
|-/8-8-8-8-8-8-8-8-|-12-12-12-12-12-12-12-12--|
|------------------|--------------------------|
|------------------|--------------------------|
|------------------|--------------------------|
|------------------|--------------------------|


                            Outro
             D.S. al Coda &
                             E7
   E  E  E  E  E  E  E E     E E E E E E E E   E E E e H
   |  |  |  |  |  |  | |     | | | | | | | |   | | | |
   /  /  /  /  /  /  / /     / / / / / / / /   / / / /

   E  E  E  E  E  E  q       E E E E Q   E E   E E E e H
|-12-12-12-12-12-12-12----||---------0-------|-0-----0------*|
|-12-12-12-12-12-12-12----||---------3---3-3-|-0-3-0-0------*|
|-------------------------||---1-1-1-----1-1-|-1-1-1-1------*|
|-------------------------||---2-2-2-----2-2-|-2-2-2-2------*|
|-------------------------||-----------------|--------------*|
|-------------------------||-----------------|--------------*|

            
Submit corrections


        Good Rockin Tonight lessons Hard to play? Try these video lessons and learn fast Good Rockin Tonight lessons
        
↑ Back to top | Tablatures and chords for acoustic guitar and electric guitar, ukulele, drums are parodies/interpretations of the original songs. You may use it for private study, scholarship, research or language learning purposes only