» » »

Elvis Presley - Good Luck Charm Tabs

Artists:  A B C D E F G H I J K L M N O P Q R S T U V W X Y Z # 

Good Luck Charm Tabs

(ver. 2) Click to play this song!
Elvis Presley
 Rating:
4/5 (4 votes)

 Good Luck Charm lessons Tabs too difficult? Try these video lessons and learn fast
 
                Gtr I (E A D G B E) - 'Scotty Moore - Electric Guitar '
Gtr II (E A D G B E) - 'Jerry Kennedy - Electric Guitar'


  Q=124(8=s8)
  A                 D7                  G
 4/4
  Gtr I
  Q   q   E E E E   q   E E +E  E Q     Q    q  E E E E   +E  E E E E E E E
|-----------------|-2---2-2-(2)-2-----|-----/3--3-3---3-|-(3)-------------3-|
|-----5-----5-5---|-1---1-1-(1)-1-----|-----/3--3-3---3-|-(3)---5---3-5---3-|
|-----6-----6-6---|-2-----2-(2)-------|-----/4--4-4---4-|-(4)---5---4-4---4-|
|-----------------|-------------------|-----------------|-----5---5-5-----5-|
|-----------------|-------------------|-----------------|-------------------|
|-----------------|-------------------|-----------------|-------------------|
|
| Gtr II
| E E E E E E Q     E E E E  E  E E E   E E  Q  E E E E    E  E Q   E E E E
|-----------------|-------------------|-----------------|-------------------|
|-----------------|-------------------|-----------------|-------------------|
|-----------------|-------------------|-----------------|-------------------|
|-----------------|-------------------|---------0-0-2-0-|-----------0-0-----|
|-0-0-------------|-0-0---0--0--0-----|------2----------|-------2-------2---|
|-----3-3-2-2-0---|-----2---------2-3-|-3-3-------------|--3--3-----------3-|


   1st - 3rd Verses
    $
        G                 C
    Q   q   q   q     Q   q   q   q     Q   q  q   q
||------3-------3---|-----------------|-----3------3--|
||o-----3-------3---|-----5-------5---|-----3------3--|
||------4-------4---|-----5-------5---|-----4------4--|
||------------------|-----5-------5---|---------------|
||o-----------------|-----------------|---------------|
||------------------|-----------------|---------------|
|
|   E E E E E E E E   E E E E E E E E   E E Q  E E Q
||------------------|-----------------|---------------|
||o-----------------|-----------------|---------------|
||------------------|---------0-0---0-|---------------|
||----------0-0---0-|-----2-2-----2---|--------0-0----|
||o-----2-2-----2---|-3-3-------------|-----2------2--|
||--3-3-------------|-----------------|-3-3-----------|


      D7                G                C                 D7
  q   q   q   q     Q   q  q   q     Q   q   q   q     q   q   q   q
|-----2-------2---|-----3------3---|-----------------|-----2-------2---|
|-----1-------1---|-----3------3---|-----5-------5---|-----1-------1---|
|-----2-------2---|-----4------4---|-----5-------5---|-----2-------2---|
|-----------------|----------------|-----5-------5---|-----------------|
|-----------------|----------------|-----------------|-----------------|
|-----------------|----------------|-----------------|-----------------|
|
| E E E E E E E E   E E Q  E E E E   E E E E E E E E   E E E E E E E E
|-----------------|----------------|-----------------|-----------------|
|-----------------|----------------|-----------------|-----------------|
|-----------------|----------------|---------0-0-----|---------2-2---2-|
|-0-0-4-4---------|--------0-0---0-|-----2-2-----2-2-|-0-0-4-4-----4---|
|---------0-0-----|-----2------2---|-3-3-------------|-----------------|
|-------------2-3-|-3-3------------|-----------------|-----------------|


               Chorus
  G                D7                                   G
  q  Q  H       Q  q   E E E E   E E e E +E  E q     Q  a q   E E E a E
|-3----------||----2-----2-----|-----2-2-(2)---2---|----2s3---3-3---2s3---|
|-3----------||----1---3-1-----|-----1-1-(1)-3-1---|----2s3---3-3---2s3---|
|-4----------||----2---2-------|---2-2-2-(2)-2-2---|----3s4---4-4---3s4---|
|------------||--------------4s|=0-----------------|----------------------|
|------------||----------------|-------------------|----------------------|
|------------||----------------|-------------------|----------------------|
|
| Q  Q  H       Q  E E Q   E E   Q   E E  Q    E E   Q    E E Q   E   E
|------------||----------------|-------------------|----------------------|
|------------||----------------|-------------------|----------------------|
|-0----------||----------------|-------------------|----------------------|
|------------||-0----0---------|-----------------0-|--------0-0---2---0---|
|------------||----2---0-----0-|-0---2-0--0--------|------2---------------|
|------------||------------2---|---------------2---|-3--------------------|


                         D7                                   A
  +E  E E E E E E e   Q  q    E E E E   q  E E +E  E E E   Q   Q    E q   E
|-(3)---------------|----2---/2-2-----|-2--2-2-(2)-2-2---|----/5---/5-5-----|
|-(3)---5---3-5---3-|----1---/1-1-----|-1--1-1-(1)---1---|----/5---/5-5-----|
|-(4)---5---4-------|--------/2-2---2-|-2--2-2-(2)---2---|----/6---/6-6---2-|
|-----5---5---------|-----------------|------------------|------------------|
|-------------------|-----------------|------------------|------------------|
|-------------------|-----------------|------------------|------------------|
|
|  Q    E E Q   Q     Q  E E  Q   E E   Q  E E  Q    E E   Q   E E  E E Q
|-------------------|-----------------|------------------|------------------|
|-------------------|-----------------|------------------|------------------|
|-------------------|-----------------|------------------|------------------|
|-------2-0-0-------|-0---------------|-0----------------|----------2-2-----|
|-------------------|----2-2--0-----0-|----2-2--0------0-|-0---4-4------4---|
|--3------------3---|-------------2---|--------------2---|------------------|


                                                   To Coda
  D7                    G
  q  E E +E  E q     Q   Q   E E E  E   +E  E E E E E E E
|----2-2-(2)-2-2---|----/3---3-3---/3-|-(3)-----------------||
|-3--1-1-(1)-1-1---|----/3---3-3---/3-|-(3)---5---3-5---3--o||
|-2--2---------2---|----/4---4-4---/4-|-(4)---5---4-----4---||
|------------------|------------------|-----5---5-----------||
|------------------|------------------|--------------------o||
|------------------|------------------|---------------------||
|
| Q  E E  Q    E E   Q   E E Q   E  E    Q    E E Q   E E
|------------------|------------------|---------------------||
|------------------|------------------|--------------------o||
|------------------|------------------|---------------------||
|-0----------------|-----2-0-3------0-|---------0-3---2-2---||
|----2-2--0--------|-------------2----|-------2------------o||
|--------------2-3-|-3----------------|--3------------------||


 Interlude
     A               D7                    G
  Q   Q    E q   E   q  E E +E  E q     Q   Q   E E E  E   +E  E E E E E E E
|----/5---/5-5-----|----2-2-(2)-2-2---|----/3---3-3---/3-|-(3)---------------|
|----/5---/5-5-----|-3--1-1-(1)-1-1---|----/3---3-3---/3-|-(3)---5---3-5---3-|
|----/6---/6-6---2-|-2--2---------2---|----/4---4-4---/4-|-(4)---5---4-----4-|
|------------------|------------------|------------------|-----5---5---------|
|------------------|------------------|------------------|-------------------|
|------------------|------------------|------------------|-------------------|
|
| Q   E E  E E Q     Q  E E  Q    E E   Q   E E Q   E  E    Q    E E Q   E E
|------------------|------------------|------------------|-------------------|
|------------------|------------------|------------------|-------------------|
|------------------|------------------|------------------|-------------------|
|----------2-2-----|-0----------------|-----2-0-3------0-|---------0-3---2-2-|
|-0---4-4------4---|----2-2--0--------|-------------2----|-------2-----------|
|------------------|--------------2-3-|-3----------------|--3----------------|


                                                                 D.S. al Coda
  Q   Q    E q   E   q  E E +E  E q     Q   Q   E E E  E   +E  E E E E E E E
|----/5---/5-5-----|----2-2-(2)-2-2---|----/3---3-3---/3-|-(3)----------------||
|----/5---/5-5-----|-3--1-1-(1)-1-1---|----/3---3-3---/3-|-(3)---5---3-5---3--||
|----/6---/6-6---2-|-2--2---------2---|----/4---4-4---/4-|-(4)---5---4-----4--||
|------------------|------------------|------------------|-----5---5----------||
|------------------|------------------|------------------|--------------------||
|------------------|------------------|------------------|--------------------||
|
| Q   E E  E E Q     Q  E E  Q    E E   Q   E E Q   E  E    Q    E E Q   E E
|------------------|------------------|------------------|--------------------||
|------------------|------------------|------------------|--------------------||
|------------------|------------------|------------------|--------------------||
|----------2-2-----|-0----------------|-----2-0-3------0-|---------0-3---2-2--||
|-0---4-4------4---|----2-2--0--------|-------------2----|-------2------------||
|------------------|--------------2-3-|-3----------------|--3-----------------||


   Outro
    &
       A               D7
    Q   Q    E q   E   q  E E +E  E q
||-----/5---/5-5-----|----2-2-(2)-2-2---|
||o----/5---/5-5-----|-3--1-1-(1)-1-1---|
||-----/6---/6-6---2-|-2--2---------2---|
||-------------------|------------------|
||o------------------|------------------|
||-------------------|------------------|
|
|   Q   E E  E E Q     Q  E E  Q    E E
||-------------------|------------------|
||o------------------|------------------|
||-------------------|------------------|
||-----------2-2-----|-0----------------|
||o-0---4-4------4---|----2-2--0--------|
||-------------------|--------------2-3-|


     G
  Q   Q   E E E  E   +E  E E E E E E E   3x
|----/3---3-3---/3-|-(3)-----------------||
|----/3---3-3---/3-|-(3)---5---3-5---3--o||
|----/4---4-4---/4-|-(4)---5---4-----4---||
|------------------|-----5---5-----------||
|------------------|--------------------o||
|------------------|---------------------||
|
| Q   E E Q   E  E    Q    E E Q   E E   3x
|------------------|---------------------||
|------------------|--------------------o||
|------------------|---------------------||
|-----2-0-3------0-|---------0-3---2-2---||
|-------------2----|-------2------------o||
|-3----------------|--3------------------||


            
Submit corrections


        Good Luck Charm lessons Hard to play? Try these video lessons and learn fast Good Luck Charm lessons
        
↑ Back to top | Tablatures and chords for acoustic guitar and electric guitar, ukulele, drums are parodies/interpretations of the original songs. You may use it for private study, scholarship, research or language learning purposes only