» » »

Elvis Presley - Dont Be Cruel Bass

Artists:  A B C D E F G H I J K L M N O P Q R S T U V W X Y Z # 

Dont Be Cruel Bass

(ver. 1) Click to play this song!
Elvis Presley
 Rating:
4.3/5 (27 votes)

 Dont Be Cruel  lessons Tabs too difficult? Try these video lessons and learn fast
 
                Intro:
G|-------2-4-2---------2-4-2---------2-4-2---------2-4-2-|
D|--0---4---------0---4---------0---4---------0---4------|
A|-------------------------------------------------------|
E|-------------------------------------------------------|

Verse 1:
G|---------------------------------------------------------|
D|----4--7-----4--7-----4--7--------------9--12------9--12-|
A|-5--------5--------5--------5-7-8-9-10---------10--------|
E|---------------------------------------------------------|

G|---------------------------------------------------|
D|----------------------------7--7-----4--7-----4--7-|
A|----9--12------9--12---7--7-------5--------5-------|
E|-10---------10-------------------------------------|

Verse 2:
G|---------------------------------------------------------|
D|----4--7-----4--7-----4--7--------------9--12------9--12-|
A|-5--------5--------5--------5-7-8-9-10---------10--------|
E|---------------------------------------------------------|

G|--------------------------------------------7-5-4---|
D|----------------------------7--7-----4--7---------7-|
A|----9--12------9--12---7--7-------5-----------------|
E|-10---------10--------------------------------------|

Bridge 1:
G|---------------------------------------------|
D|-5-5-6-7-7---5-5---7-5-4-------4--7-----4--7-|
A|--5-----7-7---5-5-------7---5--------5-------|
E|---------------------------------------------|

Verse 3:
G|---------------------------------------------------------|
D|----4--7-----4--7-----4--7--------------9--12------9--12-|
A|-5--------5--------5--------5-7-8-9-10---------10--------|
E|---------------------------------------------------------|

G|--------------------------------------------7-5-4---|
D|----------------------------7--7-----4--7---------7-|
A|----9--12------9--12---7--7-------5-----------------|
E|-10---------10--------------------------------------|

Bridge 1:
G|---------------------------------------------|
D|-5-5-6-7-7---5-5---7-5-4-------4--7-----4--7-|
A|--5-----7-7---5-5-------7---5--------5-------|
E|---------------------------------------------|

Verse 4:
G|---------------------------------------------------------|
D|----4--7-----4--7-----4--7--------------9--12------9--12-|
A|-5--------5--------5--------5-7-8-9-10---------10--------|
E|---------------------------------------------------------|

G|--------------------------------------------7-5-4---|
D|----------------------------7--7-----4--7---------7-|
A|----9--12------9--12---7--7-------5-----------------|
E|-10---------10--------------------------------------|

Bridge 2:                              (Break)
G|---------------------------------------|
D|-5-5-6-7-7---5-5---7-5-4-------4--7----|
A|--5-----7-7---5-5-------7---5--------5-|
E|---------------------------------------|

Outro:
G|-------------------------------------------------7-5-4---|
D|------7--7-----4--7-----4--7-------7--7-----4--7-------7-|
A|-7--7-------5--------5--------7--7-------5---------------|
E|---------------------------------------------------------|

                                       (End)
G|------------------------------4--------|
D|-5-5-6-7-7---5-5---7-5-4--------7--4---|
A|--5-----7-7---5-5-------7---5--------5-|
E|---------------------------------------|

(Alternative Tab For Verses 2/3/4):
G|------------------------------------------------------|
D|----4--7-----4--7-----4--7----------------------------|
A|-5--------5--------5-------5-3-2--------2--5-----2--5-|
E|---------------------------------5---3---------3------|

G|----------------------------------------7-5-4---|
D|----4--7------4--7-------7--7-----4--7--------7-|
A|-5---------5--------7--7-------5----------------|
E|------------------------------------------------|            
Submit corrections


        Dont Be Cruel  lessons Hard to play? Try these video lessons and learn fast Dont Be Cruel  lessons
        
↑ Back to top | Tablatures and chords for acoustic guitar and electric guitar, ukulele, drums are parodies/interpretations of the original songs. You may use it for private study, scholarship, research or language learning purposes only