» » »

Elvis Presley - Dont Be Cruel Tabs

Artists:  A B C D E F G H I J K L M N O P Q R S T U V W X Y Z # 

Dont Be Cruel Tabs

(ver. 1) Click to play this song!
Elvis Presley
 Rating:
4/5 (4 votes)

 Dont Be Cruel  lessons Tabs too difficult? Try these video lessons and learn fast
 
                Gtr I (E A D G B E) - 'Scotty Moore - Electric Guitar'
Gtr II (E A D G B E) - 'Shorty Long - Piano'


 Intro
  Q=170(8=s8)
  D
 4/4
  Gtr I (El. Gtr.)
  Q.     E +E  E E E   Q.     E +E  E E E
|--------------------|--------------------|
|--------------------|--------------------|
|--------------------|--------------------|
|--------------7-9-7-|--------------7-9-7-|
|-5------9-(9)-------|-5------9-(9)-------|
|--------------------|--------------------|
|
| Gtr II (Piano arr. for Gtr.)
| E  E E E  E  E E E   E  E E E  E  E E E
|--------------------|--------------------|
|--------------------|--------------------|
|--------------------|--------------------|
|----4---4-----4---4-|----4---4-----4---4-|
|----5---5-----5---5-|----5---5-----5---5-|
|----5---5-----5---5-|----5---5-----5---5-|


  Q.     E +E  E E E   Q.     E +E  E E E
|--------------------|--------------------||
|--------------------|--------------------||
|--------------------|--------------------||
|--------------7-9-7-|--------------7-9-7-||
|-5------9-(9)-------|-5------9-(9)-------||
|--------------------|--------------------||
|
| E  E E E  E  E E E   E  E E E  E  E E E
|--------------------|--------------------||
|--------------------|--------------------||
|--------------------|--------------------||
|----4---4-----4---4-|----4---4-----4---4-||
|----5---5-----5---5-|----5---5-----5---5-||
|----5---5-----5---5-|----5---5-----5---5-||


   1st - 4th Verses
    $
    $$
    D
    W                 W               W               W
||------------------|---------------|---------------|---------------|
||o-----------------|---------------|---------------|---------------|
||------------------|---------------|---------------|---------------|
||------------------|---------------|---------------|---------------|
||o-----------------|---------------|---------------|---------------|
||--5---------------|---------------|---------------|---------------|
|
|   E E E E E E E E   E E Q  E E Q    E E Q  E E Q    E E Q  E E Q
||------------------|---------------|---------------|---------------|
||o-----------------|---7----7------|---7----7------|---7----7------|
||------------------|---7----7------|---7----7------|---7----7------|
||----4---4---4---4-|---7----7------|---7----7------|---7----7------|
||o---5---5---5---5-|---------------|---------------|---------------|
||----5---5---5---5-|---------------|---------------|---------------|


  G                                   D
    Gtr II
  E E E E E E E E   E E E E E E E E   E E E E E E E E   E E E E E E E E
|-----------------|-----------------|-----------------|------------------||
|-----------------|-----------------|-----------------|------------------||
|-----------------|-----------------|-----------------|------------------||
|---5---5---5---5-|---5---5---5---5-|---4---4---4---4-|---4---4---4---4--||
|---5---5---5---5-|---5---5---5---5-|---5---5---5---5-|---5---5---5---5--||
|---7---7---7---7-|---7---7---7---7-|---5---5---5---5-|---5---5---5---5--||


 Chorus
                                                       1.
  Em                  A               D
  E E E E E E E E   E E E E E E E E   E E E E E E E E   E E E E E E E E
|-----------------|-----------------|-----------------|-------------------||
|-----------------|-----------------|-----------------|------------------o||
|---0---0---0---0-|---2---2---2---2-|-----------------|-------------------||
|---2---2---2---2-|---2---2---2---2-|---4---4---4---4-|---4---4---4---4---||
|---2---2---2---2-|---4---4---4---4-|---5---5---5---5-|---5---5---5---5--o||
|-----------------|-----------------|---5---5---5---5-|---5---5---5---5---||


                    Bridge
  2.,D.S.,D.S.S.
                     G                 A                 G
  E E E E E E E E    E E E E E E E E   E E E E E E E E   E E E E E E E E
|-----------------||-----------------|-----------------|------------------|
|-----------------||-----------------|-----------------|------------------|
|-----------------||-----------------|---2---2---2---2-|------------------|
|---4---4---4---4-||---5---5---5---5-|---2---2---2---2-|---5---5---5---5--|
|---5---5---5---5-||---5---5---5---5-|---4---4---4---4-|---5---5---5---5--|
|---5---5---5---5-||---7---7---7---7-|-----------------|---7---7---7---7--|


                             To Coda               D.S. &
                                                   D.S.
  A                 D                                      D
  E E E E E E E E   E E E E E E E E    E E E E E E E E     E E Q  H
|-----------------|------------------|------------------||-------------||
|-----------------|------------------|------------------||-------------||
|---2---2---2---2-|------------------|------------------||-------------||
|---2---2---2---2-|---4---4---4---4--|---4---4---4---4--||-4-----------||
|---4---4---4---4-|---5---5---5---5--|---5---5---5---5--||-5-----------||
|-----------------|---5---5---5---5--|---5---5---5---5--||-5-----------||


 Chorus
  Em                A                 D
  E E E E E E E E   E E E E E E E E   E E E E E E E E   E E E E E E E E
|-----------------|-----------------|-----------------|------------------|
|-----------------|-----------------|-----------------|------------------|
|---0---0---0---0-|---2---2---2---2-|-----------------|------------------|
|---2---2---2---2-|---2---2---2---2-|---4---4---4---4-|---4---4---4---4--|
|---2---2---2---2-|---4---4---4---4-|---5---5---5---5-|---5---5---5---5--|
|-----------------|-----------------|---5---5---5---5-|---5---5---5---5--|


  Em                A                 D
  E E E E E E E E   E E E E E E E E   E E E E E E E E   E E E E E E E E
|-----------------|-----------------|-----------------|------------------||
|-----------------|-----------------|-----------------|------------------||
|---0---0---0---0-|---2---2---2---2-|-----------------|------------------||
|---2---2---2---2-|---2---2---2---2-|---4---4---4---4-|---4---4---4---4--||
|---2---2---2---2-|---4---4---4---4-|---5---5---5---5-|---5---5---5---5--||
|-----------------|-----------------|---5---5---5---5-|---5---5---5---5--||


 Outro
  G                 A                 G                 A
  E E E E E E E E   E E E E E E E E   E E E E E E E E   E E E E E E E E
|-----------------|-----------------|-----------------|------------------|
|-----------------|-----------------|-----------------|------------------|
|-----------------|---2---2---2---2-|-----------------|---2---2---2---2--|
|---5---5---5---5-|---2---2---2---2-|---5---5---5---5-|---2---2---2---2--|
|---5---5---5---5-|---4---4---4---4-|---5---5---5---5-|---4---4---4---4--|
|---7---7---7---7-|-----------------|---7---7---7---7-|------------------|


  D                     D6
  Gtr I
  W               H      H       +W
|---------------|-------10----|-(10)----*|
|---------------|-------10----|-(10)----*|
|---------------|-------------|---------*|
|---------------|--------9----|--(9)----*|
|---------------|--------9----|--(9)----*|
|---------------|-------10----|-(10)----*|
|
| Gtr II
| E E E E Q  Q    Q  Q   H        W
|---------------|-------------|---------*|
|---------------|-------------|---------*|
|---------------|-------------|---------*|
|---4---4-7--4--|-------------|---------*|
|---5---5-------|-5-----------|---------*|
|---5---5-------|-------------|---------*|
            
Submit corrections


        Dont Be Cruel  lessons Hard to play? Try these video lessons and learn fast Dont Be Cruel  lessons
        
↑ Back to top | Tablatures and chords for acoustic guitar and electric guitar, ukulele, drums are parodies/interpretations of the original songs. You may use it for private study, scholarship, research or language learning purposes only