» » »

Elvis Presley - Burning Love Tabs

Artists:  A B C D E F G H I J K L M N O P Q R S T U V W X Y Z # 

Burning Love Tabs

(ver. 3) Click to play this song!
Elvis Presley
 Rating:
4/5 (4 votes)

 Burning Love lessons Tabs too difficult? Try these video lessons and learn fast
 
                
           D                    G                    A                   Bm
    x x x 11 10 10         x x x 7 8 7         x x x 9 10 9          x x x 7 7 7

          AV                  GIII                   C
      x x x 6 5 5          x x x 4 3 3          x x x 9 8 8



Gtr I (D A D G B E) - 'Guitar 1'
Gtr II (E A D G B E) - 'Guitar 2'
Gtr III (E A D G B E) - 'Guitar 3'
Gtr IV (E A D G B E) - 'Guitar 4'


 Intro
  Q=142
  D
 4/4
  Gtr I (El. Gtr. w/ Dropped D-tuning - DADGBE)
  E E E E E E E E   E E E E E E E E   +E  E E E E E E E
|-2-----2---2-----|---2-------2-----|-----2-------2-----|
|-3-3---3---3---3-|-3-3-----3-3-3-3-|-(3)-3---3-3-3---3-|
|-2-2-4-2-2-2-4-2-|-2-2-4-2-2-2-4-2-|-(2)-2-4-2-2-2-4-2-|
|-0-0-0-0-0-0-0-0-|-0-0-0-0-0-0-0-0-|-(0)-0-0-0-0-0-0-0-|
|---0-0---0---0---|-0-0---0-0-----0-|-(0)---0---------0-|
|---------0---0---|-0---------------|-------------------|


                       1st - 3rd Verses
                    $
                            D
                    Gtr II
  W                     Q   q    Q    q
                            |         |
                            /         /

  E E E E +E  E E E     E E E E +E  E Q
|---2---------2-----||-------------------|
|---3---3-(3)-3-----||o-3-3-3-3-(3)---3--|
|-2-2-4-2-(2)-2-4-2-||--2-2-4-2-(2)-2-2--|
|-0-0-0-0-(0)-0-0-0-||--0-0-0-0-(0)-0-0--|
|-0-------------0-0-||o-0-0--------------|
|-0-----------------||-------------------|
|
|                   Gtr III
| W                     W
|-------------------||-------------------|
|-------------------||o------------------|
|-------------------||-------------------|
|-------------------||-------------------|
|-------------------||o------------------|
|-------------------||-------------------|


      G       A           D
  Q   q   Q   q      Q    q    Q    q
      |       |           |         |
      /       /           /         /

  E E E E E E E E   +E  E E E  E  E E E
|-3-3-3-3-5-5-5-2-|-(2)-2----------------|
|-3-3-3-3-5-5-5-3-|-(3)-3---3--3--3------|
|-4-4-4-4-6-6-6-2-|-(2)-2-4-2--2--2-4-2--|
|-5-5-5-5-7-7-7-0-|-(0)-0-0-0--0--0-0-0--|
|-----------------|-------------------0--|
|-----------------|----------------------|
|
|                           ~~~~~~
| H       Q   E E    E  E E E +Q    E E
|-----------------|----------------------|
|-----------------|----------------------|
|-----------------|----------------------|
|-----------------|----------------------|
|---------------5-|-----5-7-5-(5)---2-0--|
|-----------------|----------------------|


   Q    q    Q    q      Q   q   Q   q
        |         |          |       |
        /         /          /       /

  +E  E E E  E  E E E    Q   E E E E E E
|-----2---2--2--------|------------------|
|-----3---3--3--------|--3-----3-3-3-----|
|-(2)-2-4-2--2--2-4-2-|--2---4-2-2-2-4-2-|
|-(0)---0-0--0--0-0-0-|--0---0-0-0-0-0-0-|
|-(0)--------0--0-0---|--0-------0-0-----|
|-----------------0---|--0---------------|
|
|         ~~~~~~
|  E  E E E +Q    E E   +Q   Q   H
|---------------------|------------------|
|---------------------|------------------|
|---------------------|------------------|
|---------------------|------------------|
|-----5-7-5-(5)---7-5-|-(5)--------------|
|---------------------|------------------|


      G       A           D
  Q   q   Q   q      Q    q   Q   q
      |       |           |       |
      /       /           /       /

  E E E E E E E E   +E  E E E E E E E
|-3-3-3-3-5-5-5-2-|-(2)-2--------------|
|-3-3-3-3-5-5-5-3-|-(3)-3---3-3-3---3--|
|-4-4-4-4-6-6-6-2-|-(2)-2-4-2-2-2-4-2--|
|-5-5-5-5-7-7-7-0-|-(0)-0-0-0-0-0-0-0--|
|-----------------|---------0-0---0----|
|-----------------|-----------0--------|
|
| W                  W
|-----------------|--------------------|
|-----------------|--------------------|
|-----------------|--------------------|
|-----------------|--------------------|
|-----------------|--------------------|
|-----------------|--------------------|


                                           G       A           D
  Q   q   Q   q     Q   q    Q    q    Q   q   Q   q      Q    q   Q   q
      |       |         |         |        |       |           |       |
      /       /         /         /        /       /           /       /

  E E E E E E E E   E E E E +E  E Q    E E E E E E E E   +E  E E E E E E E
|-------------2---|------------------|-3-3-3-3-5-5-5-2-|-(2)-2--------------|
|-3-3---3-----3-3-|-3-3-3-3-(3)---3--|-3-3-3-3-5-5-5-3-|-(3)-3---3-3-3------|
|-2-2-4-2-2-2-2-2-|-2-2-4-2-(2)-2-2--|-4-4-4-4-6-6-6-2-|-(2)-2-4-2-2-2-4-2--|
|-0-0-0-0-0-0-0-0-|-0-0-0-0-(0)-0-0--|-5-5-5-5-7-7-7-0-|-(0)-0-0-0-0-0-0-0--|
|-0-------0-0---0-|-0-0--------------|-----------------|-----------------0--|
|---------0-------|------------------|-----------------|--------------------|


                                           G       A           D
   Q    q   Q   q     Q  q   Q   q     Q   q   Q   q      Q    q   Q   q
        |       |        |       |         |       |           |       |
        /       /        /       /         /       /           /       /

  +E  E E E E E E E   Q  E E E E E E   E E E E E E E E   +E  E E E E E E E
|-----2---2-2-------|----------------|-3-3-3-3-5-5-5-2-|-(2)-2--------------|
|-----3---3-3-------|-3----3-3-3-----|-3-3-3-3-5-5-5-3-|-(3)-3---3-3-3---3--|
|-(2)-2-4-2-2-2-4-2-|-2--4-2-2-2-4-2-|-4-4-4-4-6-6-6-2-|-(2)-2-4-2-2-2-4-2--|
|-(0)---0-0-0-0-0-0-|-0--0-0-0-0-0-0-|-5-5-5-5-7-7-7-0-|-(0)-0-0-0-0-0-0-0--|
|-(0)-------0-0-0---|-0------0-0-----|-----------------|---------0-0---0----|
|---------------0---|-0--------------|-----------------|-----------0--------|


                     Chorus
           To Coda
                         Bm    AV       GIII               Bm      AV
  Q   q   Q   q       Q  q  Q  q     Q  q    Q    q     Q  q   Q   q
      |       |          |     |        |         |        |       |
      /       /          /     /        /         /        /       /

  E E E E E E E E     Q  Q  Q  E E   Q  E E +E  E Q     Q  E E E E E E
|-------------2----||-7--7--5--5-3-|-3--3-3-(3)-3-3/--|-7--7-7-5-5-5-3-|
|-3-3---3-----3-3--||-7--7--5--5-3-|-3--3-3-(3)-3-3/--|-7--7-7-5-5-5-3-|
|-2-2-4-2-2-2-2-2--||-7--7--6--6-4-|-4--4-4-(4)-4-4/--|-7--7-7-6-6-6-4-|
|-0-0-0-0-0-0-0-0--||-9--9--7--7-5-|-5--5-5-(5)-5-5/--|-9--9-9-7-7-7-5-|
|-0-------0-0---0--||--------------|------------------|----------------|
|---------0--------||--------------|------------------|----------------|
|
|                  Gtr III
| W                   H     H        Q  E E +Q    Q     Q  Q   H
|------------------||--------------|------------------|----------------|
|------------------||--------------|----3-------------|----7-----------|
|------------------||-7-----6------|-4----5-(5)---5/--|----7---6-------|
|------------------||-9-----7------|-5----5-(5)---5/--|-9--9---7-------|
|------------------||-9-----7------|------------------|-9------7-------|
|------------------||--------------|------------------|----------------|


      GIII               Bm     A        GIII               D
  Q   q    Q    q     Q  q   Q  q     Q  q   H         Q    q   Q   q
      |         |        |      |        |                  |       |
      /         /        /      /        /                  /       /

  E E E E +E  E Q     Q  E E Q  E E   Q  E E Q  E E   +E  E E E E E E E
|-3-3-3-3-(3)-3-3/--|-7--7-7-5--5-3-|-3--3-3-5--5---|-----2---2---2------|
|-3-3-3-3-(3)-3-3/--|-7--7-7-5--5-3-|-3--3-3-5--5-3-|-(3)-3---3-3-3---3--|
|-4-4-4-4-(4)-4-4/--|-7--7-7-6--6-4-|-4--4-4-6--6-2-|-(2)-2-4-2-2-2-4-2--|
|-5-5-5-5-(5)-5-5/--|-9--9-9-7--7-5-|-5--5-5-7--7-0-|-(0)-0-0-0-0-0-0-0--|
|-------------------|---------------|---------------|-----0-0-------0----|
|-------------------|---------------|---------------|-------0------------|
|
| Q   E E +Q    Q     H      H        Q  E E H         W
|-------------------|---------------|---------------|--------------------|
|-----3-------------|---------------|----3----------|--------------------|
|-4-----------------|-7------6------|-4------6------|--7-----------------|
|-------5-(5)---5/--|-9------7------|-5----5-7------|--------------------|
|---------------5/--|-9------7------|---------------|--------------------|
|-------------------|---------------|---------------|--------------------|


                      Interlude
                          Bm    A        G                   Bm      A
   Q    q   Q  q       Q  q  Q  q     Q  q    Q    q     Q   q   Q   q
        |      |          |     |        |         |         |       |
        /      /          /     /        /         /         /       /

  +E  E E E Q  E E     Q  Q  Q  E E   Q  E E +E  E Q     Q   E E E E E E
|-----2-----2----2--||-7--7--5--5-3-|-3--3-3-(3)-3-3/--|-7---7-7-5-5-5-3--|
|-(3)-3---3-3----3-o||-7--7--5--5-3-|-3--3-3-(3)-3-3/--|-7---7-7-5-5-5-3--|
|-(2)-2-4-2-2--4-2--||-7--7--6--6-4-|-4--4-4-(4)-4-4/--|-7---7-7-6-6-6-4--|
|-(0)-0-0-0-0--0-0--||-9--9--7--7-5-|-5--5-5-(5)-5-5/--|-9---9-9-7-7-7-5--|
|-------0----------o||--------------|------------------|------------------|
|-------0-----------||--------------|------------------|------------------|
|
|  W                   H     H        Q  E E +Q    Q     Q   Q   H
|-------------------||--------------|------------------|------------------|
|------------------o||--------------|----3-------------|-----7------------|
|-------------------||-7-----6------|-4----5-(5)---5/--|-----7---6--------|
|-------------------||-9-----7------|-5----5-(5)---5/--|-9---9---7--------|
|------------------o||-9-----7------|------------------|-9-------7--------|
|-------------------||--------------|------------------|------------------|
|
|                  Gtr IV
|                      ~~~~~~~~~~~~~~~~~                         ~
|  W                   H     H        W                  E E q   H
|-------------------||-7-----5------|-3----------------|-7---7---5--------|
|------------------o||-7-----5------|-3----------------|-7---7---5--------|
|-------------------||-7-----6------|-4----------------|-7---7---6--------|
|-------------------||--------------|------------------|---9--------------|
|------------------o||--------------|------------------|------------------|
|-------------------||--------------|------------------|------------------|


      G                  Bm     A        G                  D
  Q   q    Q    q     Q  q   Q  q     Q  q   H         Q    q      Q    q
      |         |        |      |        |                  |           |
      /         /        /      /        /                  /           /

  E E E E +E  E Q     Q  E E Q  E E   Q  E E Q  E E   +E  E E  E   E  E E E
|-3-3-3-3-(3)-3-3/--|-7--7-7-5--5-3-|-3--3-3-5--5---|-----2----2------2------|
|-3-3-3-3-(3)-3-3/--|-7--7-7-5--5-3-|-3--3-3-5--5-3-|-(3)-3----3---3--3---3--|
|-4-4-4-4-(4)-4-4/--|-7--7-7-6--6-4-|-4--4-4-6--6-2-|-(2)-2-4--2---2--2-4-2--|
|-5-5-5-5-(5)-5-5/--|-9--9-9-7--7-5-|-5--5-5-7--7-0-|-(0)-0-0--0---0--0-0-0--|
|-------------------|---------------|---------------|-----0-0-----------0----|
|-------------------|---------------|---------------|-------0----------------|
|
| Q   E E +Q    Q     H      H        Q  E E H         W
|-------------------|---------------|---------------|------------------------|
|-----3-------------|---------------|----3----------|------------------------|
|-4-----------------|-7------6------|-4------6------|--7---------------------|
|-------5-(5)---5/--|-9------7------|-5----5-7------|------------------------|
|---------------5/--|-9------7------|---------------|------------------------|
|-------------------|---------------|---------------|------------------------|
|
| ~                                                            ~~~~~~~
| W                   H      H        H      Q  e E    q    E  E  +H
|-3-----------------|-7------5------|-3------5--5---|--2/-----14-(14)--------|
|-3-----------------|-7------5------|-3------5--5---|--3/---x-15-(15)--------|
|-4-----------------|-7------6------|-4------6--6---|--2/-----14-(14)--------|
|-------------------|---------------|---------------|------------------------|
|-------------------|---------------|---------------|------------------------|
|-------------------|---------------|---------------|------------------------|


        D.S. al Coda &
                           Bm    A        G                  Bm      A
    Q    q   Q  q       Q  q  Q  q     Q  q    Q    q     Q  q   Q   q
         |      |          |     |        |         |        |       |
         /      /          /     /        /         /        /       /

    E  E E E Q  E E     Q  Q  Q  E E   Q  E E +E  E Q     Q  E E E E E E
|------2-----2----2--||-7--7--5--5-3-|-3--3-3-(3)-3-3/--|-7--7-7-5-5-5-3-|
|---3--3---3-3----3--||-7--7--5--5-3-|-3--3-3-(3)-3-3/--|-7--7-7-5-5-5-3-|
|---2--2-4-2-2--4-2--||-7--7--6--6-4-|-4--4-4-(4)-4-4/--|-7--7-7-6-6-6-4-|
|---0--0-0-0-0--0-0--||-9--9--7--7-5-|-5--5-5-(5)-5-5/--|-9--9-9-7-7-7-5-|
|--------0-----------||--------------|------------------|----------------|
|--------0-----------||--------------|------------------|----------------|
|
|   W                   H     H        Q  E E +Q    Q     Q  Q   H
|--------------------||--------------|------------------|----------------|
|--------------------||--------------|----3-------------|----7-----------|
|--------------------||-7-----6------|-4----5-(5)---5/--|----7---6-------|
|--------------------||-9-----7------|-5----5-(5)---5/--|-9--9---7-------|
|--------------------||-9-----7------|------------------|-9------7-------|
|--------------------||--------------|------------------|----------------|
|
|   ~~~~~~~~~~~~~~~~~~~~~~~~~~~~~~~~~~~~~~~~~~~~~~~~~~~~~~~~~~~~~~~
|  +W                   H     H        W                  H      H
|-(14)---------------||-7-----5------|-3----------------|-7------5-------|
|-(15)---------------||-7-----5------|-3----------------|-7------5-------|
|-(14)---------------||-7-----6------|-4----------------|-7------6-------|
|--------------------||--------------|------------------|----------------|
|--------------------||--------------|------------------|----------------|
|--------------------||--------------|------------------|----------------|


      G                  Bm     A        G                  D
  Q   q    Q    q     Q  q   Q  q     Q  q   H         Q    q      Q    q
      |         |        |      |        |                  |           |
      /         /        /      /        /                  /           /

  E E E E +E  E Q     Q  E E Q  E E   Q  E E Q  E E   +E  E E  E   E  E E E
|-3-3-3-3-(3)-3-3/--|-7--7-7-5--5-3-|-3--3-3-5--5---|-----2----2------2--------|
|-3-3-3-3-(3)-3-3/--|-7--7-7-5--5-3-|-3--3-3-5--5-3-|-(3)-3----3---3--3---3----|
|-4-4-4-4-(4)-4-4/--|-7--7-7-6--6-4-|-4--4-4-6--6-2-|-(2)-2-4--2---2--2-4-2----|
|-5-5-5-5-(5)-5-5/--|-9--9-9-7--7-5-|-5--5-5-7--7-0-|-(0)-0-0--0---0--0-0-0----|
|-------------------|---------------|---------------|-----0-0-----------0------|
|-------------------|---------------|---------------|-------0------------------|
|
| Q   E E +Q    Q     H      H        Q  E E H         W
|-------------------|---------------|---------------|--------------------------|
|-----3-------------|---------------|----3----------|--------------------------|
|-4-----------------|-7------6------|-4------6------|--7-----------------------|
|-------5-(5)---5/--|-9------7------|-5----5-7------|--------------------------|
|---------------5/--|-9------7------|---------------|--------------------------|
|-------------------|---------------|---------------|--------------------------|
|
| ~~~~~~~~~~~~~~~~~~~~~~~~~~~~~~~~~~~~~~
| W                   H      H        W                Q    E  E  +Q.     S  S
|-3-----------------|-7------5------|-3-------------|--2/-----14-(14)-------15-|
|-3-----------------|-7------5------|-3-------------|--3/-----15-(15)----------|
|-4-----------------|-7------6------|-4-------------|--2/-----14-(14)----------|
|-------------------|---------------|---------------|--------------------------|
|-------------------|---------------|---------------|--------------------------|
|-------------------|---------------|---------------|--------------------------|


                                                            Outro
                                                             D     C     G
    Q    q   Q  q     Q  q   Q   q      Q    q   Q   q       q  q  E E E E
         |      |        |       |           |       |       |  |  | |   |
         /      /        /       /           /       /       /  /  / /   /

    E  E E E Q  E E   Q  E E E E E E   +E  E E Q   E E E     Q  Q  E Q   E
|------2-----2----2-|------2---------|---------2---2-----||--2-----------3--|
|---3--3---3-3----3-|----3-3---3---3-|-(3)-3---3---3-3-3-||o-3--3--3-3---3--|
|---2--2-4-2-2--4-2-|-2--2-2-0-2-4-2-|-(2)-2-4-2---2-2-2-||--2--2--2-2---4--|
|---0--0-0-0-0--0-0-|-0--0-0-0-0-0-0-|-(0)-0-0-0---0-0-0-||--0--0--0-0---5--|
|--------0----------|-0--0---0-----0-|-(0)---------------||o-0--0-----------|
|--------0----------|-0------0-----0-|-(0)---------------||--0--------------|
|
| Gtr IV
|  +W                 W                 W                    W
|-(15)--------------|----------------|-------------------||-----------------|
|-------------------|----------------|-------------------||o----------------|
|-------------------|----------------|-------------------||-----------------|
|-------------------|----------------|-------------------||-----------------|
|-------------------|----------------|-------------------||o----------------|
|-------------------|----------------|-------------------||-----------------|


                       D      C     G
  Q   q    Q     q      q  q  E E E E   Q  q    Q    q
      |          |      |  |  | |   |      |         |
      /          /      /  /  / /   /      /         /

  E E E E  E   E E E    Q  Q  Q   E E   Q  E E +E  E E E  4x
|-3-3-3-3--3---3-3---|--------2---2---|-3--3-3-(3)-3-3----||
|-3-3-3-3--3---3-3---|--3--3--3---3-3-|-3--3-3-(3)-3-3---o||
|-4-4-4-4--4---4-4---|--2--2--2---2-4-|-4--4-4-(4)-4-4----||
|-5-5-5-5--5---5-5-0-|--0--0--0---0-5-|-5--5-5-(5)-5-5----||
|------------------0-|--0--0--------5-|----------------0-o||
|--------------------|----------------|----------------0--||
|
|                       ~~
| Q   Q   +H            W               W                 4x
|-----3---(3)/-------|-14-------------|-------------------||
|-----3---(3)/-------|-15-------------|------------------o||
|-----4---(4)/-------|-14-------------|-------------------||
|--------------------|----------------|-------------------||
|--------------------|----------------|------------------o||
|--------------------|----------------|-------------------||

            
Submit corrections


        Burning Love lessons Hard to play? Try these video lessons and learn fast Burning Love lessons
        
↑ Back to top | Tablatures and chords for acoustic guitar and electric guitar, ukulele, drums are parodies/interpretations of the original songs. You may use it for private study, scholarship, research or language learning purposes only