Home » E » Elvis Costello »

Elvis Costello - Everyday I Write The Book Bass

Artists:  A B C D E F G H I J K L M N O P Q R S T U V W X Y Z # 

Everyday I Write The Book Bass
Version #1
Elvis Costello


Copy URL
Tuning: Standard

Intro
G|------------------------------------------------------------|
D|------------------------------------------------------------|
A|-4-4~---------------------764-4~-----------77---------------|
E|-------4-4~--5-5~---7-7~----------12/4-4~----5-5~--557-7----|

Verse 1
G|------------------------------------------------------------------------------------|
D|----6-79-x----13-------------14----11------13------------14----11------16-----------|
A|--7-------11-----12-14--x11-----12----x11-----12-14-x11-----12----x11-----14-16-x12-|
E|------------------------------------------------------------------------------------|

------------------------------|
-66-----66--------------------|
----------44--4~------------2~|
-----4~----------5422-2~-44---|

Chorus
G|--------1-1--12-2-124------------1-1--12-2-124------------1-1--12-2-124-----|
D|--2-2-24----4----------1---2-2-24----4----------1---2-2-24----4----------1--|
A|---------------------2---2--------------------2---2--------------------2----|
E|----------------------------------------------------------------------------|

Verse 2
G|-------------------------------------------------------------------------|
D|21--------------2-2------------------------------------------------------|
A|--4-4~---24-4~-------------------------764-4~---24-4~----------------2~--|
E|--------4-----------420-0-420-0-004-0-4--------4-------12/22-2~-2244-----|

Repeat Chorus

Verse 3
G|-------------------------------------------------------------------------|
D|21--------------2-2---------2-2------------------------------------------|
A|--4-4~---24-4~------------24-----------764-4~---24-4~----------------2~--|
E|--------4-----------024-4-------420-0----------4-------12/22-2~-2244-----|

Bridge
G|--------1-1--12-2-124------------1-1--12-2-124---------------------------------------|
D|--2-2-24----4----------1---2-2-24----4----------1------------------------------------|
A|---------------------2------------------------2---2-44-4~-----------77---------------|
E|-----------------------------------------------------------7544-4~----55-5~--5577-7~-|

-----------------------------------------------------------------------------------|
---6-79-x----13-------------14----11------13------------14----11------16-----------|
-7-------11-----12-14--x11-----12----x11-----12-14-x11-----12----x11-----14-16-x12-|
-----------------------------------------------------------------------------------|

------------------------------|
-66---------------------------|
--------7644--4~------------2~|
-----4~----------5422-2~-44---|

Repeat Chorus

Bridge 2
G|-------1-1--12-2-124-----------------------------|
D|-2-2-24----4----------1--------------------------|
A|--------------------2---2-44-4~------------------|
E|---------------------------------7544-4~--55-5~--|

Outro
G|-----------1-1--12-2-124------------1-1--12-2-124------------1-1--12-2-124----|
D|-----2-2-24----4----------1---2-2-24----4-----------1--2-2-24----4----------1-|
A|------------------------2---2----------------------2----------------------2---|
E|12/0--------------------------------------------------------------------------|

-------1-1--12-2-124-----------99-------99-----------------------99-----------------6788-----|
-2-2-24----4----------1--------------------------91012/13----------------------7-7-7---------|
--------------------2---2--7-7----11-11----12-12-------------7-7----11-11-1177----------6666-|
----------------------------------------------------------11---------------------------------|

------------------------5678--------999----999-----697--7------------------------------------|
-----------------7-7-777----------------------7-7-9---9---97------------------7-7---79-------|
-7-7-777-9-9-999-------------6667-7----9-9------------------9--7-7-7911-11-911----11-----7h9-|
---------------------------------------------------------------------------------------7-----|

------------------------------|  |---| use as end note instead of fading out
----------------7-7---79------|  |---|
-7-7-7911-11-911----11-----7h9|  |-7-|
-------------------------7----|  |---|
            
Submit corrections

↑ Back to top | Tablatures and chords for acoustic guitar and electric guitar, ukulele, drums are parodies/interpretations of the original songs. You may use it for private study, scholarship, research or language learning purposes only