» » »

Elvis Costello - Everyday I Write The Book Tabs

Artists:  A B C D E F G H I J K L M N O P Q R S T U V W X Y Z # 

Everyday I Write The Book Tabs

(ver. 1) Click to play this song!
Elvis Costello
 Rating:
4.3/5 (23 votes)

 Everyday I Write The Book lessons Tabs too difficult? Try these video lessons and learn fast
 
                 Intro
  Q=100
 4/4
  Gtr I (Clean El. Gtr.)
  W          W          W          W
|----------|----------|----------|------|
|----------|----------|----------|------|
|----------|----------|----------|------|
|----------|----------|----------|------|
|----------|----------|----------|------|
|----------|----------|----------|------|


  W          W          W          W
|----------|----------|----------|------||
|----------|----------|----------|------||
|----------|----------|----------|------||
|----------|----------|----------|------||
|----------|----------|----------|------||
|----------|----------|----------|------||


 1st & 2nd Verses
  $
  W          W          W          W
|----------|----------|----------|------|
|----------|----------|----------|------|
|----------|----------|----------|------|
|----------|----------|----------|------|
|----------|----------|----------|------|
|----------|----------|----------|------|


  W          W          W          W
|----------|----------|----------|------|
|----------|----------|----------|------|
|----------|----------|----------|------|
|----------|----------|----------|------|
|----------|----------|----------|------|
|----------|----------|----------|------|


                         Chorus
To Coda
  W          W            W          W
|----------|----------||-----------|------|
|----------|----------||o----------|------|
|----------|----------||-----------|------|
|----------|----------||-----------|------|
|----------|----------||o----------|------|
|----------|----------||-----------|------|


                        PM------------------------------
  W          W          S S S S S S S S S E.  S S  S S
|----------|----------|--------------------------------|
|----------|----------|-9-9-9-9-9-9-9-9-9-9------------|
|----------|----------|----------------------11-9------|
|----------|----------|---------------------------11-9-|
|----------|----------|--------------------------------|
|----------|----------|--------------------------------|


 ----------------------|
  E S S S S S S S S  E  +Q
|----------------------------||
|----------------------------||
|---9-9-9-9-9-9-9-9h11-(11)--||
|----------------------------||
|----------------------------||
|----------------------------||


 Bridge
  W          W          W          W
|----------|----------|----------|------|
|----------|----------|----------|------|
|----------|----------|----------|------|
|----------|----------|----------|------|
|----------|----------|----------|------|
|----------|----------|----------|------|


  W          W          W          W
|----------|----------|----------|-------||
|----------|----------|----------|------o||
|----------|----------|----------|-------||
|----------|----------|----------|-------||
|----------|----------|----------|------o||
|----------|----------|----------|-------||


 Chorus
  W          W          W          W
|----------|----------|----------|------|
|----------|----------|----------|------|
|----------|----------|----------|------|
|----------|----------|----------|------|
|----------|----------|----------|------|
|----------|----------|----------|------|


  PM--------------------|            PM--------|
  S S S S S S S S S S S S +E   E   E S S S E S +E  E Q
|--------------------------------|----------------------|
|-9-9-9-9-9-9-9-9-9-9-9-9-(9)----|---9-9-9-9-9-(9)------|
|--------------------------------|----------------------|
|-----------------------------11-|----------------------|
|--------------------------------|----------------------|
|--------------------------------|----------------------|


                                              D.S. al Coda
  PM------------------------------|     PM--------|
  S S S S S S S S S S S S  S S  S S   E S S S E S +E  E Q
|-----------------------------------|----------------------||
|-9-9-9-9-9-9-9-9-9-9-9-9-----------|---9-9-9-9-9-(9)------||
|-------------------------11-9------|----------------------||
|------------------------------11-9-|----------------------||
|-----------------------------------|----------------------||
|-----------------------------------|----------------------||


             Chorus
  &
  W           W          W          W
|----------||----------|----------|------|
|----------||----------|----------|------|
|----------||----------|----------|------|
|----------||----------|----------|------|
|----------||----------|----------|------|
|----------||----------|----------|------|


  W          W          W          W          W
|----------|----------|----------|----------|------|
|----------|----------|----------|----------|------|
|----------|----------|----------|----------|------|
|----------|----------|----------|----------|------|
|----------|----------|----------|----------|------|
|----------|----------|----------|----------|------|


    PM----|     PM------|      PM--------|
  E S S S S E S E.  S S  E   E S S S E S +E  E Q
|--------------------------|----------------------|
|---9-9-9-9-----9----------|---9-9-9-9-9-(9)------|
|------------------11-9----|----------------------|
|-----------------------11-|----------------------|
|--------------------------|----------------------|
|--------------------------|----------------------|


    PM-----------------------|
  E S S S E S +S  E.  S S  S S
|-------------------------------||
|---9-9-9-9-9-(9)-9-------------||
|--------------------11-9-------||
|-------------------------11-9--||
|-------------------------------||
|-------------------------------||


 Outro
  W          W          W          W          W
|----------|----------|----------|----------|------|
|----------|----------|----------|----------|------|
|----------|----------|----------|----------|------|
|----------|----------|----------|----------|------|
|----------|----------|----------|----------|------|
|----------|----------|----------|----------|------|


             PM---------------------------------
  W          S S S S S S S S S S S S  S S  S S
|----------|-----------------------------------|
|----------|-9-9-9-9-9-9-9-9-9-9-9-9-----------|
|----------|-------------------------11-9------|
|----------|------------------------------11-9-|
|----------|-----------------------------------|
|----------|-----------------------------------|


 -------------------------------|
  S S S S S S S S S S S S S S S S
|---------------------------------|
|---------------------------------|
|-9-9-9-9-9-9-9-9-9-9-9-9-9-9-9-9-|
|---------------------------------|
|---------------------------------|
|---------------------------------|


  PM----------------------------------------------------------------|
  S S S S S S S S S S S S  S S  S S   S S S S S S S S S S S S S S S S
|-----------------------------------|----------------------------------|
|-9-9-9-9-9-9-9-9-9-9-9-9-----------|----------------------------------|
|-------------------------11-9------|-9-9-9-9-9-9-9-9-9-9-9-9-9-9-9-9--|
|------------------------------11-9-|----------------------------------|
|-----------------------------------|----------------------------------|
|-----------------------------------|----------------------------------|


  PM----------------------------------------------------------------|
  S S S S S S S S S S S S  S S  S S   S S S S S S S S S S S S S S S S
|-----------------------------------|----------------------------------|
|-9-9-9-9-9-9-9-9-9-9-9-9-----------|----------------------------------|
|-------------------------11-9------|-9-9-9-9-9-9-9-9-9-9-9-9-9-9-9-9--|
|------------------------------11-9-|----------------------------------|
|-----------------------------------|----------------------------------|
|-----------------------------------|----------------------------------|


  PM--------------------------------------------------|
  S S S S S S S S S S S S S S S S   S S S S S S S S S S  E  +Q
|---------------------------------|------------------------------|
|---------------------------------|------------------------------|
|-9-9-9-9-9-9-9-9-9-9-9-9-9-9-9-9-|-9-9-9-9-9-9-9-9-9-9s16-(16)--|
|---------------------------------|------------------------------|
|---------------------------------|------------------------------|
|---------------------------------|------------------------------|


  PM--------------------------------------------------------------|
  S S S S S S S S S S S S S S S S   S S S S S S S S S S S S S S S S
|---------------------------------|----------------------------------|
|---------------------------------|----------------------------------|
|-9-9-9-9-9-9-9-9-9-9-9-9-9-9-9-9-|-9-9-9-9-9-9-9-9-9-9-9-9-9-9-9-9--|
|---------------------------------|----------------------------------|
|---------------------------------|----------------------------------|
|---------------------------------|----------------------------------|


  PM--------------------------------------------------------------|
  S S S S S S S S S S S S S S S S   S S S S S S S S S S S S S S S S
|---------------------------------|----------------------------------|
|---------------------------------|----------------------------------|
|-9-9-9-9-9-9-9-9-9-9-9-9-9-9-9-9-|-9-9-9-9-9-9-9-9-9-9-9-9-9-9-9-9--|
|---------------------------------|----------------------------------|
|---------------------------------|----------------------------------|
|---------------------------------|----------------------------------|


  PM--------------------------------------------------------------|
  S S S S S S S S S S S S S S S S   S S S S S S S S S S S S S S S S
|---------------------------------|----------------------------------|
|---------------------------------|----------------------------------|
|-9-9-9-9-9-9-9-9-9-9-9-9-9-9-9-9-|-9-9-9-9-9-9-9-9-9-9-9-9-9-9-9-9--|
|---------------------------------|----------------------------------|
|---------------------------------|----------------------------------|
|---------------------------------|----------------------------------|


  PM--------------------------------------------------------------|
  S S S S S S S S S S S S S S S S   S S S S S S S S S S S S S S S S
|---------------------------------|----------------------------------*|
|---------------------------------|----------------------------------*|
|-9-9-9-9-9-9-9-9-9-9-9-9-9-9-9-9-|-9-9-9-9-9-9-9-9-9-9-9-9-9-9-9-9--*|
|---------------------------------|----------------------------------*|
|---------------------------------|----------------------------------*|
|---------------------------------|----------------------------------*|            
Submit corrections


        Everyday I Write The Book lessons Hard to play? Try these video lessons and learn fast Everyday I Write The Book lessons
        
↑ Back to top | Tablatures and chords for acoustic guitar and electric guitar, ukulele, drums are parodies/interpretations of the original songs. You may use it for private study, scholarship, research or language learning purposes only