» » »

Elton John - Your Song Tabs

Artists:  A B C D E F G H I J K L M N O P Q R S T U V W X Y Z # 

Your Song Tabs

(ver. 6) Click to play this song!
Elton John
 Rating:
4.3/5 (24 votes)

 Your Song lessons Tabs too difficult? Try these video lessons and learn fast
 
                [Intro]

e|------------4-------4---|---------------------------|
B|-8-----8----4---4-----4-|-----6-----------4---------|
G|-----8--8---5-5---------|-5h7----7----3h5----5------|
D|---8--------------------|----8----8------6-----6----|
A|-6----8-----6-----6-----|-6-----6----6------6-------|
E|------------------------|---------------------------|

[Verse]

e|-----------------|--------6--3h4p3----|-----------------------|-----3---------------|
B|---8-6-8-6-8-8-8-|---6-6---6-------6--|--4-4-4-4-4--4-4---4-4-|----4--4-6h7p6----4--|
G|-------8-----5---|-3----3----3-----3--|----5------------5-----|----5----5-----5-----|
D|--8----8-----6---|-3----3----5-----5--|--5------------5-------|---5-----------------|
A|-6-----6---------|-5----5----5-----5--|-3---------------------|-0-------------------|
E|-----------------|--------------------|-------------6---------|---------4-------4---|

e|------------------------|-------7--8----------------|---------6--8----------|-------------------------|
B|----4-4--4-4--6-6----6--|-----8-----------------4-6-|--------8---9----------|----4-4-6----6-----------|
G|-------------------8----|---7--------11p10p8--------|---8-8------8--10p8h10-|---5----7----7--8-8-8-7--|
D|--5------5--------------|-5-------5----------10-----|--8---------10---------|--------8----8--8-8-8-8--|
A|----------------8----8--|-----------------------3-5-|-6-----6----8--8-------|--6-----8----8--8-8-8-8--|
E|-6------6-----6-----6---|---------------8-----------|-----------------------|-4---4--6----6--6-6-6-6--|

[Verse]

e|-----------------|--------6--3h4p3----|-----------------------|-----3---------------|
B|---8-6-8-6-8-8-8-|---6-6---6-------6--|--4-4-4-4-4--4-4---4-4-|----4--4-6h7p6----4--|
G|-------8-----5---|-3----3----3-----3--|----5------------5-----|----5----5-----5-----|
D|--8----8-----6---|-3----3----5-----5--|--5------------5-------|---5-----------------|
A|-6-----6---------|-5----5----5-----5--|-3---------------------|-0-------------------|
E|-----------------|--------------------|-------------6---------|---------4-------4---|

e|------------------------|-------7--8----------------|---------6--8----------|---------|
B|----4-4--4-4--6-6----6--|-----8-----------------4-6-|--------8---9----------|----4-4--|
G|-------------------8----|---7--------11p10p8--------|---8-8------8--10p8h10-|---5-----|
D|--5------5--------------|-5-------5----------10-----|--8---------10---------|---------|
A|----------------8----8--|-----------------------3-5-|-6-----6----8--8-------|--6------|
E|-6------6-----6-----6---|---------------8-----------|-----------------------|-4---4---|

e|---------------|---------------|
B|-4--8--9----9--|-8--8--9-------|
G|-3--8--8----8--|-8--8--8----8--|
D|-5--8--10---10-|-8--8--10----8-|
A|-6-------------|---------------|
E|----11----11---|-11------11----|

[Chorus]

e|---3-6--3-6--8-8--------------|-----------2-1---------|
B|---3---------8---11-8---------|---1-1-4-1-----4----1--|
G|--3----------8--------10p8h10-|--1-1----0---1-----1-1-|
D|-5-----5-----10-------10------|-3---3------------1----| x2
A|------------------------------|-----------------------|
E|------------------------------|-----------------------|

e|-----8----8--11-----8----8-11--8---8-11-8-8-------8-6----------1----------|-2p1---------|
B|-----8-11-8---------8-11-8-------11-------9------------8h6-----1---1----1-|-1---4--4-4--|
G|----8-----8-------8------8----------------8----------------8---1--1---1---|-1---1----1--|
D|-10-------10----8--------8----7-----7-----------------8-----8--3-3---3----|-1---1--1----|
A|------------------------------------------11--------6----6-------------3--|-------------|
E|--------------------------------------------------------------------------|-------------|

[Bridge]

e|------------4-------4---|---------------------------|
B|-8-----8----4---4-----4-|-----6-----------4---------|
G|-----8--8---5-5---------|-5h7----7----3h5----5------|
D|---8--------------------|----8----8------6-----6----|
A|-6----8-----6-----6-----|-6-----6----6------6-------|
E|------------------------|---------------------------|

Tab repeats from here on, but you can still scroll down for the order.

[Verse]

e|-----------------|--------6--3h4p3----|-----------------------|-----3---------------|
B|---8-6-8-6-8-8-8-|---6-6---6-------6--|--4-4-4-4-4--4-4---4-4-|----4--4-6h7p6----4--|
G|-------8-----5---|-3----3----3-----3--|----5------------5-----|----5----5-----5-----|
D|--8----8-----6---|-3----3----5-----5--|--5------------5-------|---5-----------------|
A|-6-----6---------|-5----5----5-----5--|-3---------------------|-0-------------------|
E|-----------------|--------------------|-------------6---------|---------4-------4---|

e|------------------------|-------7--8----------------|---------6--8----------|-------------------------|
B|----4-4--4-4--6-6----6--|-----8-----------------4-6-|--------8---9----------|----4-4-6----6-----------|
G|-------------------8----|---7--------11p10p8--------|---8-8------8--10p8h10-|---5----7----7--8-8-8-7--|
D|--5------5--------------|-5-------5----------10-----|--8---------10---------|--------8----8--8-8-8-8--|
A|----------------8----8--|-----------------------3-5-|-6-----6----8--8-------|--6-----8----8--8-8-8-8--|
E|-6------6-----6-----6---|---------------8-----------|-----------------------|-4---4--6----6--6-6-6-6--|

[Verse]

e|-----------------|--------6--3h4p3----|-----------------------|-----3---------------|
B|---8-6-8-6-8-8-8-|---6-6---6-------6--|--4-4-4-4-4--4-4---4-4-|----4--4-6h7p6----4--|
G|-------8-----5---|-3----3----3-----3--|----5------------5-----|----5----5-----5-----|
D|--8----8-----6---|-3----3----5-----5--|--5------------5-------|---5-----------------|
A|-6-----6---------|-5----5----5-----5--|-3---------------------|-0-------------------|
E|-----------------|--------------------|-------------6---------|---------4-------4---|

e|------------------------|-------7--8----------------|---------6--8----------|---------|
B|----4-4--4-4--6-6----6--|-----8-----------------4-6-|--------8---9----------|----4-4--|
G|-------------------8----|---7--------11p10p8--------|---8-8------8--10p8h10-|---5-----|
D|--5------5--------------|-5-------5----------10-----|--8---------10---------|---------|
A|----------------8----8--|-----------------------3-5-|-6-----6----8--8-------|--6------|
E|-6------6-----6-----6---|---------------8-----------|-----------------------|-4---4---|

e|---------------|---------------|
B|-4--8--9----9--|-8--8--9-------|
G|-3--8--8----8--|-8--8--8----8--|
D|-5--8--10---10-|-8--8--10----8-|
A|-6-------------|---------------|
E|----11----11---|-11------11----|

[Chorus]

e|---3-6--3-6--8-8--------------|-----------2-1---------|
B|---3---------8---11-8---------|---1-1-4-1-----4----1--|
G|--3----------8--------10p8h10-|--1-1----0---1-----1-1-|
D|-5-----5-----10-------10------|-3---3------------1----| x2
A|------------------------------|-----------------------|
E|------------------------------|-----------------------|

e|-----8----8--11-----8----8-11--8---8-11-8-8-------8-6----------1----------|-2p1------1--|
B|-----8-11-8---------8-11-8-------11-------9------------8h6-----1---1----1-|-1---4--4----|
G|----8-----8-------8------8----------------8----------------8---1--1---1---|-1---1----1--|
D|-10-------10----8--------8----7-----7-----------------8-----8--3-3---3----|-1---1--1----|
A|------------------------------------------11--------6----6-------------3--|-------------|
E|--------------------------------------------------------------------------|-------------|

e|------------------|
B|-6----6-----------|
G|-7----7--8-8-8-7--|
D|-8----8--8-8-8-8--|
A|-8----8--8-8-8-8--|
E|-6----6--6-6-6-6--|

e|-----8----8--11-----8----8-11--8---8-11-8-8-------8-6----------1----------|-2p1---------|
B|-----8-11-8---------8-11-8-------11-------9------------8h6-----1---1----1-|-1---4--4-4--|
G|----8-----8-------8------8----------------8----------------8---1--1---1---|-1---1----1--|
D|-10-------10----8--------8----7-----7-----------------8-----8--3-3---3----|-1---1--1----|
A|------------------------------------------11--------6----6-------------3--|-------------|
E|--------------------------------------------------------------------------|-------------|

[Bridge]

e|------------4-------4---|------------------------------|
B|-8-----8----4---4-----4-|-----6-----------4------4-----|
G|-----8--8---5-5---------|-5h7----7----3h5----5---3-----|
D|---8--------------------|----8----8------6-----6-5-----|
A|-6----8-----6-----6-----|-6-----6----6------6----6-----|
E|------------------------|------------------------------|            
Submit corrections


        Your Song lessons Hard to play? Try these video lessons and learn fast Your Song lessons
        
↑ Back to top | Tablatures and chords for acoustic guitar and electric guitar, ukulele, drums are parodies/interpretations of the original songs. You may use it for private study, scholarship, research or language learning purposes only