» » »

Elton John - Goodbye Yellow Brick Road Tabs

Artists:  A B C D E F G H I J K L M N O P Q R S T U V W X Y Z # 

Goodbye Yellow Brick Road Tabs

(ver. 3) Click to play this song!
Elton John
 Rating:
4.4/5 (5 votes)

 Goodbye Yellow Brick Road lessons Tabs too difficult? Try these video lessons and learn fast
 
                 Intro
  Q=60(16=s16)
  F  C/EDm Dm/C Bb   CsC/EF
 4/4
  Gtr I (Piano arr. for Gtr.)
  Q  Q  Q  Q    E. S S E. E. S S S E
|-5--3--1--1--|-----------1----1-----||
|-6--1--3--3--|-3----6-5--1------1---||
|-5--0--2--2--|-3----5-5--2--------2-||
|-7--2--0-----|-3--3-5-5--3--3-------||
|----------3--|-1----3-7--3----------||
|-------------|-----------1----------||


   1st & 2nd Verses
    N.C.
    Gtr II (Clean El. Gtr. w/ Leslie effect)
    Q  S S E E. S Q     Q  Q   S S S S +Q     Q  Q   S  S E  Q
||--6-----------8----|---------------6-(6)--|-------------------|
||o------6-----------|-----------6----------|-------------------|
||-----7-----9----9--|-10--9\--7---7--------|-8--8/--9----------|
||---------8---------|----------------------|----------10---10--|
||o------------------|----------------------|-------------------|
||-------------------|----------------------|-------------8--8--|


  Q  Q  E E S S E   Q  S S E E. S Q     Q  Q   S S S S +Q
|----5------------|-6-----------8----|---------------6-(6)--|
|-6---------6-6-6-|------6-----------|-----------6----------|
|-5-----5-5-------|----7-----9----9--|-10--9\--7---7--------|
|-----------------|--------8---------|----------------------|
|-----------------|------------------|----------------------|
|-----------------|------------------|----------------------|


                                        Pre-Chorus
                                         Bbm           Eb
  Q  Q   S  S E  Q    Q  Q  E E S S E    S S E S S E S S S S S S S S
|-------------------|----5------------||-6---------6------------------|
|-------------------|-6---------6-6-6-||---6-----6-----8-----8--------|
|-8--8/--9----------|-5-----5-5-------||-----6-----------8-----8------|
|----------10---10--|-----------------||-------8-----------8-----8s5--|
|-------------------|-----------------||------------------------------|
|-------------8--8--|-----------------||------------------------------|


                                                         Chorus
  Ab          Db              Bbm         C7              F             A7
  S S E E S S S S S S +E  E   S S S S E E S S S S +Q      S S E S E. Q  S E.
|-------4-------------------|-------1------------------||-------1---------5--|
|---------------6---6-(6)---|---2-----------5---5-(5)--||-----1--------------|
|-----5---3-------6-------6-|---------1----------------||---2-----2-----6----|
|---6-------5-----6-------6-|-----3---3-3-----5--------||-3------------------|
|-6-----------4-------------|-1---------1-3------------||--------------------|
|---------------------------|--------------------------||--------------------|


  Bb           F            D7      Gm                C           F
  S S E S E. S S S S +Q     E E E E S S S S +S  S E   S S S S E E E S S E S S
|---------6--------5-(5)--|---------------3-(3)-----|-----------------1-------|
|----------------6--------|-----3---------------3---|---5-----5-5---1-------6-|
|-------7------5----------|---5---3---------------3-|---------------------5---|
|-----8-------------------|---4---------5-----------|-----5-------3-----------|
|---8---------------------|-5---------5-------------|-3-----3-----------7-----|
|-6-----------------------|---------3---------------|-------------------------|


  Dm              A               Bb             Db               N.C.
                                 2/4            4/4
                                                                  Gtr III (El. Gtr. w/ dist.)
  E S S +S  S S S E S S +S  S E   S S S S S E.   E  E E S S +E  E S E.
|-----5-(5)-----------5-(5)-----|-------6-6----|---^1-------------------|
|-----------6-------------------|--------------|---^2-2-----------------|
|-------------7-----6-----------|-----------7--|---^1---1-1-(1)---------|
|-7-------------7-----------7---|-----8--------|---^3-------------------|
|---5---------------------------|---8----------|-4----------------4-6---|
|-----------------5-----------5-|-6------------|------------------------|


                     C       Bb            Eb
               2/4          4/4
                     Gtr II
  Q  Q  Q  Q    S E. S S E   S S E S S E S S S S S S S S
|-------------|------------|-6---------6-----------------|
|-------------|--------5---|---6-----6-----8-----8-------|
|-------------|--------5---|-----6-----------8-----8-----|
|-3--2--------|----------5-|-------8-----------8-----8s5-|
|-------5--3--|-1-1--3-----|-----------------------------|
|-------------|------------|-----------------------------|


                             1.
  Ab          Eb              Bbm         C7
  S S E E S S S S S S +E  E   S S S S E E S S S S +Q
|-------4-------------------|-------1------------------|
|---------------6---6-(6)---|---2-----------5---5-(5)--|
|-----5---3-------6-------6-|---------1----------------|
|---6-------5-----6-------6-|-----3---3-3-----5--------|
|-6-----------4-------------|-1---------1-3------------|
|---------------------------|--------------------------|
|
| Gtr I
| W                           W
|---------------------------|--------------------------|
|---------------------------|--------------------------|
|---------------------------|--------------------------|
|---------------------------|--------------------------|
|---------------------------|--------------------------|
|---------------------------|--------------------------|


  F
  H           H
|-5---------------------------||
|-6--------------------------o||
|-5---------------------------||
|-----------------------------||
|----------------------------o||
|-----------------------------||
|
| E S S S S E E. S S  S  E
|-------3---3-5----8----------||
|-----6------------8h10------o||
|---5---5-5-5-5--5------------||
|-3---------------------10----||
|----------------------------o||
|-----------------------------||


  2.
  Bbm         C7             F
  S S S S E E S S S S +Q     W
|-------1------------------|-5----*|
|---2-----------5---5-(5)--|-6----*|
|---------1----------------|-5----*|
|-----3---3-3-----5--------|------*|
|-1---------1-3------------|------*|
|--------------------------|------*|
            
Submit corrections


        Goodbye Yellow Brick Road lessons Hard to play? Try these video lessons and learn fast Goodbye Yellow Brick Road lessons
        
↑ Back to top | Tablatures and chords for acoustic guitar and electric guitar, ukulele, drums are parodies/interpretations of the original songs. You may use it for private study, scholarship, research or language learning purposes only