Home » E » Elliot Minor »

Elliot Minor - Lucky Star Tabs

Artists:  A B C D E F G H I J K L M N O P Q R S T U V W X Y Z # 

Lucky Star Tabs

(ver. 1) Click to play this song!
Elliot Minor
Band: Elliot Minor

Gtr I: Ed Minton: Standard Tuning (e,B,G,D,A,E)
Gtr II: Alex Davies: STandard Tuning (e,B,G,D,A,E)

Key:

x:- String Mute
*:- Palm Mute
~:- Let Ring
/:- Slide

UPDATES:

24/11/06:- Chorus altered.

NOTE: Everyone please take note of the fact that this is the ALBUM version of the song, 
the demo.

Intro:

Gtr I

e:|-5--5--5-5-5-5-5-x-x-4--4--4-4-4-4-4-x-x-|
B:|-5--5--5-5-5-5-5-x-x-5--5--5-5-5-5-5-x-x-|
G:|-6--6--6-6-6-6-6-x-x-6--6--6-6-6-6-6-x-x-|
D:|-7--7--7-7-7-7-7-x-x-6--6--6-6-6-6-6-x-x-|
A:|-7--7--7-7-7-7-7-x-x-4--4--4-4-4-4-4-x-x-|
E:|-5--5--5-5-5-5-5-x-x---------------------|

e:|-5--5--5-5-5-5-5-x-x-4--4--4-4-4-4-4-x-x-|
B:|-5--5--5-5-5-5-5-x-x-5--5--5-5-5-5-5-x-x-|
G:|-6--6--6-6-6-6-6-x-x-6--6--6-6-6-6-6-x-x-|
D:|-7--7--7-7-7-7-7-x-x-6--6--6-6-6-6-6-x-x-|
A:|-7--7--7-7-7-7-7-x-x-4--4--4-4-4-4-4-x-x-|
E:|-5--5--5-5-5-5-5-x-x---------------------|

Gtr II

(This has some strange effect on it)

e:|-5~~~~~~~~~~-4~~~~~~~~~~-5~~~~~~~~~~-4~~~~~~~~~~-|
B:|-5~~~~~~~~~~-5~~~~~~~~~~-5~~~~~~~~~~-5~~~~~~~~~~-|
G:|-6~~~~~~~~~~-6~~~~~~~~~~-6~~~~~~~~~~-6~~~~~~~~~~-|
D:|-7~~~~~~~~~~-6~~~~~~~~~~-7~~~~~~~~~~-6~~~~~~~~~~-|
A:|-7~~~~~~~~~~-4~~~~~~~~~~-7~~~~~~~~~~-4~~~~~~~~~~-|
E:|-5~~~~~~~~~~-------------5~~~~~~~~~~-------------|

Verse I: (In this verse, Gtr II just plays the same chords as Gtr I, but lets them ring 
some strange effect)

Gtr I

e:|-5--5--5-5-5-5-5-x-x-4--4--4-4-4-4-4-x-x-|
B:|-5--5--5-5-5-5-5-x-x-5--5--5-5-5-5-5-x-x-|
G:|-6--6--6-6-6-6-6-x-x-6--6--6-6-6-6-6-x-x-|
D:|-7--7--7-7-7-7-7-x-x-6--6--6-6-6-6-6-x-x-|
A:|-7--7--7-7-7-7-7-x-x-4--4--4-4-4-4-4-x-x-|
E:|-5--5--5-5-5-5-5-x-x---------------------|

e:|-5--5--5-5-5-5-5-x-x-4--4--4-4-4-4-4-x-x-|
B:|-5--5--5-5-5-5-5-x-x-5--5--5-5-5-5-5-x-x-|
G:|-6--6--6-6-6-6-6-x-x-6--6--6-6-6-6-6-x-x-|
D:|-7--7--7-7-7-7-7-x-x-6--6--6-6-6-6-6-x-x-|
A:|-7--7--7-7-7-7-7-x-x-4--4--4-4-4-4-4-x-x-|
E:|-5--5--5-5-5-5-5-x-x---------------------|

e:|---------------------5--5-x-x----------|
B:|-7--7--7-7-7-7-7-x-x-5--5-x-x-9--9-x-x-|
G:|-7--7--7-7-7-7-7-x-x-6--6-x-x-9--9-x-x-|
D:|-7--7--7-7-7-7-7-x-x-7--7-x-x-9--9-x-x-|
A:|-5--5--5-5-5-5-5-x-x-7--7-x-x-7--7-x-x-|
E:|---------------------5--5-x-x----------|

e:|-5--5--5-5-5-5-5-x-x-4--4--4-4-4-4-4-x-x-|
B:|-5--5--5-5-5-5-5-x-x-5--5--5-5-5-5-5-x-x-|
G:|-6--6--6-6-6-6-6-x-x-6--6--6-6-6-6-6-x-x-|
D:|-7--7--7-7-7-7-7-x-x-6--6--6-6-6-6-6-x-x-|
A:|-7--7--7-7-7-7-7-x-x-4--4--4-4-4-4-4-x-x-|
E:|-5--5--5-5-5-5-5-x-x---------------------|

e:|-5--5--5-5-5-5-5-x-x-4--4--4-4-4-4-4-x-x-|
B:|-5--5--5-5-5-5-5-x-x-5--5--5-5-5-5-5-x-x-|
G:|-6--6--6-6-6-6-6-x-x-6--6--6-6-6-6-6-x-x-|
D:|-7--7--7-7-7-7-7-x-x-6--6--6-6-6-6-6-x-x-|
A:|-7--7--7-7-7-7-7-x-x-4--4--4-4-4-4-4-x-x-|
E:|-5--5--5-5-5-5-5-x-x---------------------|

e:|-----------------------------------------|
B:|-7--7--7-7-7-7-7-x-x-9--9--9-9-9-9-9-x-x-|
G:|-7--7--7-7-7-7-7-x-x-9--9--9-9-9-9-9-x-x-|
D:|-7--7--7-7-7-7-7-x-x-9--9--9-9-9-9-9-x-x-|
A:|-5--5--5-5-5-5-5-x-x-7--7--7-7-7-7-7-x-x-|
E:|-----------------------------------------|

e:|---------------------------|
B:|-7--7--7-7-7-7-7-x-x-9~~~~-|
G:|-7--7--7-7-7-7-7-x-x-9~~~~-|
D:|-7--7--7-7-7-7-7-x-x-9~~~~-|
A:|-5--5--5-5-5-5-5-x-x-7~~~~-|
E:|---------------------------|

Chorus:


Chorus:

Gtr I

e:|-----------------------------------------------------------------|
B:|-----------------------------------------------------------------|
G:|-6-6-6-6-6-6-6-6/9-9-9-9/8-8-8-8-6-6-6-6-6-6-6-6/9-9-9-9/8-8-8-8-|
D:|-x-x-x-x-x-x-x-x-x-x-x-x-x-x-x-x-x-x-x-x-x-x-x-x-x-x-x-x-x-x-x-x-|
A:|-4-4-4-4-4-4-4-4/7-7-7-7/6-6-6-6-4-4-4-4-4-4-4-4/7-7-7-7/6-6-6-6-|
E:|-----------------------------------------------------------------|

Gtr II

e:|-----------------------------------------------------------------|
B:|-----------------------------------------------------------------|
G:|-----------------6-6-6-6-6-6-6-6-----------------6-6-6-6-6-6-6-6-|
D:|-7-7-7-7-7-7-7-7-6-6-6-6-6-6-6-6-7-7-7-7-7-7-7-7-6-6-6-6-6-6-6-6-|
A:|-7-7-7-7-7-7-7-7-4-4-4-4-4-4-4-4-7-7-7-7-7-7-7-7-4-4-4-4-4-4-4-4-|
E:|-5-5-5-5-5-5-5-5-----------------5-5-5-5-5-5-5-5-----------------|


Verse II Pt I:

Both Gtr's

e:|---------------------------------------------------------|
B:|---------------------------------------------------------|
G:|-----------------------------6-6--6-6-6--6-6-6--6-6-6--6-|
D:|-7-7--7-7-7--7-7-7--7-7-7--7-6-6--6-6-6--6-6-6--6-6-6--6-|
A:|-7-7--7-7-7--7-7-7--7-7-7--7-4-4--4-4-4--4-4-4--4-4-4--4-|
E:|-5-5--5-5-5--5-5-5--5-5-5--5-----------------------------|
PM  * *  * * *  * * *  * * *  * * *  * * *  * * *  * * *  *

e:|---------------------------------------------------------|
B:|---------------------------------------------------------|
G:|-----------------------------6-6--6-6-6--6-6-6--6-6-6--6-|
D:|-7-7--7-7-7--7-7-7--7-7-7--7-6-6--6-6-6--6-6-6--6-6-6--6-|
A:|-7-7--7-7-7--7-7-7--7-7-7--7-4-4--4-4-4--4-4-4--4-4-4--4-|
E:|-5-5--5-5-5--5-5-5--5-5-5--5-----------------------------|
PM  * *  * * *  * * *  * * *  * * *  * * *  * * *  * * *  *

e:|---------------------------------------------------------|
B:|---------------------------------------------------------|
G:|-7-7--7-7-7--7-7-7--7-7-7--7---------------9-9--9-9-9--9-|
D:|-7-7--7-7-7--7-7-7--7-7-7--7-7-7--7-7-7--7-9-9--9-9-9--9-|
A:|-5-5--5-5-5--5-5-5--5-5-5--5-7-7--7-7-7--7-7-7--7-7-7--7-|
E:|-----------------------------5-5--5-5-5--5---------------|
PM  * *  * * *  * * *  * * *  * * *  * * *  * * *  * * *  *

Verse II Pt II:

Gtr I

e:|-----------------------------------------4---------------4-------|
B:|---------5---------------5-----------5-----5---5-----5-----5---5-|
G:|-----6-----6---6-----6-----6---6-------6-----6---------6-----6---|
D:|-------7-----7---------7-----7-----6---------------6-------------|
A:|---7---------------7-------------4---------------4---------------|
E:|-5---------------5-----------------------------------------------|
PM  * * * * * * * * * * * * * * * * * * * * * * * * * * * * * * * *

e:|-------------------------------------4-------------------------|
B:|---------5---------------5-------------5-----5-----------------|
G:|-----6-----6---6-----6-----6---6---------------6-----6---------|
D:|-------7-----7---------7-----7-------------------------6-----6-|
A:|---7---------------7-------------4-4-----4-4-----4-4-----4-4---|
E:|-5---------------5---------------------------------------------|
PM  * * * * * * * * * * * * * * * * * * * * * * * * * * * * * * *

Gtr II

e:|---------------------------------------------------------|
B:|---------------------------------------------------------|
G:|-----------------------------6-6--6-6-6--6-6-6--6-6-6--6-|
D:|-7-7--7-7-7--7-7-7--7-7-7--7-6-6--6-6-6--6-6-6--6-6-6--6-|
A:|-7-7--7-7-7--7-7-7--7-7-7--7-4-4--4-4-4--4-4-4--4-4-4--4-|
E:|-5-5--5-5-5--5-5-5--5-5-5--5-----------------------------|
PM  * *  * * *  * * *  * * *  * * *  * * *  * * *  * * *  *

e:|---------------------------------------------------------|
B:|---------------------------------------------------------|
G:|-----------------------------6-6--6-6-6--6-6-6--6-6-6--6-|
D:|-7-7--7-7-7--7-7-7--7-7-7--7-6-6--6-6-6--6-6-6--6-6-6--6-|
A:|-7-7--7-7-7--7-7-7--7-7-7--7-4-4--4-4-4--4-4-4--4-4-4--4-|
E:|-5-5--5-5-5--5-5-5--5-5-5--5-----------------------------|
PM  * *  * * *  * * *  * * *  * * *  * * *  * * *  * * *  *

Both Gtr's

e:|-----------------------------------------------------------------|
B:|-----------------------------------------------------------------|
G:|-7-7-7-7-7-7-7-7-7-7-7-7-7-7-7-7-9-9-9-9-9-9-9-9-9-9-9-9-9-9-9-9-|
D:|-7-7-7-7-7-7-7-7-7-7-7-7-7-7-7-7-9-9-9-9-9-9-9-9-9-9-9-9-9-9-9-9-|
A:|-5-5-5-5-5-5-5-5-5-5-5-5-5-5-5-5-7-7-7-7-7-7-7-7-7-7-7-7-7-7-7-7-|
E:|-----------------------------------------------------------------|

Repeat Chorus (x2)

Bridge:

Both Gtr's

e:|-----------------------------------------------------------------|
B:|-----------------------------------------------------------------|
G:|-7-7-7-7-7-7-7-7-7-7-7-7-7-7-7-7-----------------9-9-9-9-9-9-9-9-|
D:|-7-7-7-7-7-7-7-7-7-7-7-7-7-7-7-7-7-7-7-7-7-7-7-7-9-9-9-9-9-9-9-9-|
A:|-5-5-5-5-5-5-5-5-5-5-5-5-5-5-5-5-7-7-7-7-7-7-7-7-7-7-7-7-7-7-7-7-|
E:|---------------------------------5-5-5-5-5-5-5-5-----------------|

(Not sure on timing for this part)

e:|-------------------------------------------------------|
B:|-------------------------------------------------------|
G:|----------------------------6-6--6-6--6-6--6-6-x-x-x-x-|
D:|-7-7--7-7--7-7--7-7-x-x-x-x-6-6--6-6--6-6--6-6-x-x-x-x-|
A:|-7-7--7-7--7-7--7-7-x-x-x-x-4-4--4-4--4-4--4-4-x-x-x-x-|
E:|-5-5--5-5--5-5--5-5-x-x-x-x----------------------------|

e:|-------------------------------------------------------|
B:|-------------------------------------------------------|
G:|----------------------------6-6--6-6--6-6--6-6-x-x-x-x-|
D:|-7-7--7-7--7-7--7-7-x-x-x-x-6-6--6-6--6-6--6-6-x-x-x-x-|
A:|-7-7--7-7--7-7--7-7-x-x-x-x-4-4--4-4--4-4--4-4-x-x-x-x-|
E:|-5-5--5-5--5-5--5-5-x-x-x-x----------------------------|

e:|-----------------------------------------------------------------|
B:|-----------------------------------------------------------------|
G:|-7-7-7-7-7-7-7-7-7-7-7-7-7-7-7-7-9-9-9-9-9-9-9-9-9-9-9-9-9-9-9-9-|
D:|-7-7-7-7-7-7-7-7-7-7-7-7-7-7-7-7-9-9-9-9-9-9-9-9-9-9-9-9-9-9-9-9-|
A:|-5-5-5-5-5-5-5-5-5-5-5-5-5-5-5-5-7-7-7-7-7-7-7-7-7-7-7-7-7-7-7-7-|
E:|-----------------------------------------------------------------|

e:|-----------------------------------------------------------------|
B:|-----------------------------------------------------------------|
G:|-7-7-7-7-7-7-7-7-7-7-7-7-7-7-7-7-9-9-9-9-9-9-9-9-9-9-9-9-9-9-9-9-|
D:|-7-7-7-7-7-7-7-7-7-7-7-7-7-7-7-7-9-9-9-9-9-9-9-9-9-9-9-9-9-9-9-9-|
A:|-5-5-5-5-5-5-5-5-5-5-5-5-5-5-5-5-7-7-7-7-7-7-7-7-7-7-7-7-7-7-7-7-|
E:|-----------------------------------------------------------------|

e:|---------------------------------|
B:|---------------------------------|
G:|-9-9-9-9-9-9-9-9-9-9-9-9-9-9-9-9-|
D:|-9-9-9-9-9-9-9-9-9-9-9-9-9-9-9-9-|
A:|-7-7-7-7-7-7-7-7-7-7-7-7-7-7-7-7-|
E:|---------------------------------|

Repeat Chorus until end of song

End on:

Gtr I

e:|-----------------|
B:|-7~~~~~~~~~~~~~~-|
G:|-7~~~~~~~~~~~~~~-|
D:|-7~~~~~~~~~~~~~~-|
A:|-5~~~~~~~~~~~~~~-|
E:|-----------------|

Gtr II

e:|-----------------|
B:|-----------------|
G:|-7~~~~~~~~~~~~~~-|
D:|-7~~~~~~~~~~~~~~-|
A:|-5~~~~~~~~~~~~~~-|
E:|-----------------|
            
Submit corrections

↑ Back to top | Tablatures and chords for acoustic guitar and electric guitar, ukulele, drums are parodies/interpretations of the original songs. You may use it for private study, scholarship, research or language learning purposes only