» » »

Elena Siegman - Beauty Of Annihilation Tabs

Artists:  A B C D E F G H I J K L M N O P Q R S T U V W X Y Z # 

Beauty Of Annihilation Tabs

(ver. 1) Click to play this song!
Elena Siegman
 Rating:
3.8/5 (5 votes)

 Beauty Of Annihilation lessons Tabs too difficult? Try these video lessons and learn fast
 
                Beauty of Annihlation
featured in Call of Duty: World at War's Nazi Zombie mode.
(Shi No Numa death song)
(Der Riese easter egg song)


written, produced, mixed,
and all instruments performed by Kevin Sherwood at Treyarch.

Vocals by Elena Siegman

Vocal Engineering Collin Ayers

Mastered by Oscar Zambrano at

Additional production by Brian Tuey.  Treyarch's Audio director


*******************************************************************
Transposition:
I have this transcribed for an 8 string guitar that is tuned down a
whole step.  This is what I originally used for the song.  I realize
that most people probably don't have an 8 string so if you want to
play the song on a six string then you will ahve to transpose the
6th and 7th strings in my tablature.

example of octave transposition (its pretty easy I promise)

So this is the intro that you'll see below.  The only parts you'll
have to transpose are the rhythm parts on the top strings.  To
transpose an octave you just move 2 strings down and 2 frets up.
I included an example below.
Intro (original on 8 string)

  p.m.(rhythm only)------------------------------------------------

D--------------------------------|
A--------7---7---7---7---9---9---|
F7---7-------------7---7---9-----|
C--9---9---8---8---------------9-|
G--------------------------------|
D--------------------------------|
A--------7-7-7-7---------5-5-5-5-|
E5-5-5-5---------8-8-8-8---------|


Intro (transposed for 6 string string)

  p.m.(rhythm only)------------------------------------------------

D--------------------------------|
A--------7---7---7---7---9---9---|
F7---7-------------7---7---9-----|
C--9---9---8---8---------------9-|
G--------9-9-9-9---------7-7-7-7-|
D7-7-7-7---------10101010--------|


Lead and Rhythm parts:
I also decided to put the lead and rhythm guitars together rather
than dobuling the amount of space it takes to write it.  It's
pretty obvious which parts are which.

Rhytm:
I decided to count each "-" as a 16th note.  For the most part this
worked out fine but when notes are on frets in double digits like
10, 11, 12, etc then I remove a "-" to keep my borders even.  If
you see some thing like -44- then this means 2 16th notes played
on the 4th fret.  I assume you wouldn't mistake it for the 44th
fret but I want to be clear just in case.

If you feel I have made any mistakes, typos, or you just want to
twitter.



*******************************************************************


Intro

guitar 1 (fx)

D--------------------------------|---------------------------------|
A--------------------------------|---------------------------------|
F--------------------------------|---------------------------------|
C------------------7--7--7--7--7-|------------------7--7--7--7--7--|
G467467467467467436-36-36-36-36-3|467467467467467436-36-36-36-36-3-|
D--------------------------------|---------------------------------|
A--------------------------------|---------------------------------|
E--------------------------------|---------------------------------|

guitar 1 (fx)

D--------------------------------|---------------------------------|
A--------------------------------|---------------------------------|
F--------------------------------|---------------------------------|
C------------------7--7--7--7--7-|------------------7--7--7--7--7--|
G467467467467467436-36-36-36-36-3|467467467467467436-36-36-36-36-3-|
D--------------------------------|---------------------------------|
A--------------------------------|---------------------------------|
E--------------------------------|---------------------------------|
                                 |
guitar 2 (dist)                  |
                                 |
D--------------------------------|---------------------------------|
A--------------------------------|---------------------------------|
F--------------------------------|------------------5--5--5--5--5--|
C--------------------------------|------------------x--x--x--x--x--|
G4---------------3---------------|4-----------------7--7--7--7--7--|
D4---------------3---------------|4---------------55-55-55-55-55-5-|
A2---------------1---------------|2--------------------------------|
E--------------------------------|---------------------------------|


guitar 1 (fx) (This is 1 measure of 2/4 then back to 4/4)

D--------|
A--------|
F--------|
C--------|
G46746746
D--------|
A--------|
E--------|


guitar 1 (fx)

D--------------------------------|---------------------------------|
A--------------------------------|---------------------------------|
F--------------------------------|---------------------------------|
C------------------7--7--7--7--7-|------------------7--7--7--7--7--|
G467467467467467436-36-36-36-36-3|467467467467467436-36-36-36-36-3-|
D--------------------------------|---------------------------------|
A--------------------------------|---------------------------------|
E--------------------------------|---------------------------------|
                                 |
guitar 2 (dist)                  |
                                 |
D--------------------------------|--------------------------------|
A--------------------------------|--------------------------------|
F--------------------------------|--------------------------------|
C--------------------------------|--------------------------------|
G4-------4--4--4-3---------------|4-------4--4--4-----------------|
D4-------4--4--4-3---------------|4-------4--4--4-----------------|
A2-----222--2--2-1---------------|2-----222--2--2-----------------|
E--------------------------------|----------------3--3--3-3--3--3-|


guitar 1 (fx)

D--------------------------------|---------------------------------|
A--------------------------------|---------------------------------|
F--------------------------------|---------------------------------|
C------------------7--7--7--7--7-|------------------7--7--7--7--7--|
G467467467467467436-36-36-36-36-3|467467467467467436-36-36-36-36-3-|
D--------------------------------|---------------------------------|
A--------------------------------|---------------------------------|
E--------------------------------|---------------------------------|
                                 |
guitar 2 (dist)                  |
                                 |
D--------------------------------|---------------------------------|
A--------------------------------|---------------------------------|
F--------------------------------|------------------5--5--5--5--5--|
C--------------------------------|------------------x--x--x--x--x--|
G--------------------------------|------------------7--7--7--7--7--|
D--4-----4--4--4-----------------|--4-----4--4--4-55-55-55-55-55-5-|
A222---222--22222----------------|222---222--22222-----------------|
E----------------333---333--33333|---------------------------------|


guitar 1 (fx)

D--------------------------------|---------------------------------|
A--------------------------------|---------------------------------|
F--------------------------------|---------------------------------|
C------------------7--7--7--7--7-|12-12-12-12-12-1-67-67-6-67-67-6-|
G367367367367367336-36-36-36-36-2|--2--2--2--2--2-3--3--3-3--3--3--|
D--------------------------------|---------------------------------|
A--------------------------------|---------------------------------|
E--------------------------------|---------------------------------|
                                 |
guitar 2 (dist)                  |
                                 |
D--------------------------------|--------------------------------|
A--------------------------------|--------------------------------|
F--------------------------------|--------------------------------|
C--------------------------------|--------------------------------|
G--------------------------------|--------------------------------|
D--4-----4--4--4-----------------|--7-----7--7--7-----------------|
A222---222--22222----------------|555---555--55555----------------|
E----------------333---333--33333|----------------2--2--2-2--2--2-|


guitar 1 (fx)                    guitar 3 (lead)

D--------------------------------|----------------|
A--------------------------------|----------------|
F--6--6--6--6--6---6--6--6--6--6-|6---8---9---11--|
C04-04-04-04-04-004-04-04-04-04-0|----------------|
G--------------------------------|4---6---7---9---|
D--------------------------------|----------------|
A--------------------------------|----------------|
E--------------------------------|----------------|
                                 |
guitar 2 (dist)                  |
                                 |
D--------------------------------|----------------|
A--------------------------------|----------------|
F--------------------------------|----------------|
C--------------------------------|----------------|
G--------------------------------|----------------|
D5-------------------------------|5---------------|
A3-------------------------------|3---------------|
E--------------------------------|----------------|

Intro Chorus

guitar 3 (lead)

D--------------------------------|--------------------------------|
A--------------------------------|--------------------------------|
F--------------------------------|--------------------------------|
C------------6---7---6-4---------|6---6-7---6-----6---6-7---6-----|
G----4-4-7-----------------7---7-|--------------7-----------------|
D--------------------------------|--------------------------------|
A--------------------------------|--------------------------------|
E--------------------------------|--------------------------------|
                                 |
guitar 2 (dist)                  |
                                 |
D--------------------------------|---------------------------------|
A--------------------7-777777x555|---------------------------------|
F--------------------5-555555x555|---------------------------------|
C--------------------6-666666x666|---------------------------------|
G----------------7---7-777777x777|--------79999999-----------------|
D4---4-----------5---5-555555x555|7---7-xx--------2---2------------|
A2---2-2255544400----------------|5---5-xx577777770---0-0055544400-|
E--------------------------------|---------------------------------|


guitar 3 (lead)

D--------------------------------|----------------------------4542-|
A--------------------------------|---------------------------------|
F--------------------------------|---------------------------------|
C--------------------------------|6---6---7---6---6---6-7---6------|
G----4---6---7---0---2---6---7---|---------------------------------|
D--------------------------------|---------------------------------|
A--------------------------------|---------------------------------|
E--------------------------------|---------------------------------|
                                 |
guitar 2 (dist)                  |
                                 |
D--------------------------------|---------------------------------|
A--------------------------------|---------------------------------|
F--------------------8-8---------|---------------------------------|
C----------------7---7-7-----9---|---------------------------------|
G----------------7---7-7-----7---|--------79999777-----------------|
D4---4-----------5--55-5---5-5---|7---7-xx-------------------------|
A2---2-2255544400----------------|5---5-xx577775554---4------------|
E--------------------------------|----------------2---2-2255544422-|


guitar 3 (lead)

D4---------------2---------------|
A--------------------------5-----|
F--------------------------------|
C--------------------------------|
G--------------------------------|
D--------------------------------|
A--------------------------------|
E--------------------------------|
                                 |
guitar 2 (dist)                  |
                                 |
D--------------------------------|
A--------------------------------|
F--------------------------------|
C--------------------------------|
G--------------------------------|
D5-------------------------------|
A3-------------------------------|
E--------------------------------|

Verse1


D--------------------------------|---------------------------------|
A--------------------------------|---------------------------------|
F--------------------------------|---------------------------------|
C--------------------------------|---------------------------------|
G--------------------------------|---------------------------------|
D4-4-------------4-4-------------|------------------------2--------|
A2-2-------------2-2-------------|----------------------45-542-----|
E--------------------------------|3-3-------------3-3----------2-2-|


D--------------------------------|---------------------------------|
A--------------------------------|---------------------------------|
F--------------------------------|---------------------------------|
C--------------------------------|---------------------------------|
G--------------------------------|----------------------245--------|
D4-4-------------4-4-------------|7-7-------------2-2--------------|
A2-2-------------2-2-------------|5-5-------------0-0--------------|
E--------------------------------|-------------------------2-2-2-2-|


guitar 1 (fx)

D--------------------------------|--------------------------------|
A--------------------------------|--------------------------------|
F--------------------------------|--------------------------------|
C--------------------------------|--------------------------------|
G----4------4------4------4--4---|----4------4------4------4--4---|
D--4---4--4---4--4---4--4---4--4-|--4---4--4---4--4---4--4---4--4-|
A2------2------2------2----------|--------------------------------|
E--------------------------------|3------3------3------3----------|
                                 |
guitar 2 (dist)                  |
                                 |
D--------------------------------|---------------------------------|
A--------------------------------|---------------------------------|
F--------------------------------|---------------------------------|
C--------------------------------|---------------------------------|
G--------------------------------|---------------------------------|
D4-4-------------4-4-------------|------------------2-----2--------|
A2-2-------------2-2-------------|--5-----5-------0-0---000-----00-|
E--------------------------------|3-3---333-----3------------------|


guitar 1 (fx)

D--------------------------------|--------------------------------|
A--------------------------------|--------------------------------|
F--------------------------------|--------------------------------|
C--------------------------------|--------------------------------|
G----4------4------4------4--4---|----7------7------7------9--9---|
D--4---4--4---4--4---4--4---4--4-|--7---7--7---7--7---7--7---7--7-|
A2------2------2------2----------|5------5------------------------|
E--------------------------------|--------------5------5----------|
                                 |
guitar 2 (dist)                  |
                                 |
D--------------------------------|---------------------------------|
A--------------------------------|---------------------------------|
F--------------------------------|---------------------------------|
C--------------------------------|---------------------------------|
G--------------------------------|---------------------------------|
D4-4-------------4-4-------------|7-7---777-----7-2-2---222---2-22-|
A2-2-------------2-2-------------|5-5---555-----5-0-0---000---0-00-|
E--------------------------------|---------------------------------|

Chorus 1

guitar 2 (dist)

D--------------------------------|---------------------------------|
A--------------------7-777777x555|---------------------------------|
F--------------------5-555555x555|---------------------------------|
C--------------------6-666666x666|---------------------------------|
G----------------7---7-777777x777|--------79999999-----------------|
D4---4-----------5---5-555555x555|7---7-xx--------2---2------------|
A2---2-2255544400----------------|5---5-xx577777770---0-0055544400-|
E--------------------------------|---------------------------------|


guitar 3 (lead)

D--------------------------------|----------------------------4542-|
A--------------------------------|---------------------------------|
F--------------------------------|---------------------------------|
C--------------------------------|---------------------------------|
G--------------------------------|---------------------------------|
D--------------------------------|---------------------------------|
A--------------------------------|---------------------------------|
E--------------------------------|---------------------------------|
                                 |
guitar 2 (dist)                  |
                                 |
D--------------------------------|---------------------------------|
A--------------------------------|---------------------------------|
F--------------------8-8---------|---------------------------------|
C----------------7---7-7-----9---|---------------------------------|
G----------------7---7-7-----7---|--------79999777-----------------|
D4---4-----------5--55-5---5-5---|7---7-xx-------------------------|
A2---2-2255544400----------------|5---5-xx577775554---4------------|
E--------------------------------|----------------2---2-2255544422-|


guitar 3 (lead)

D4---------------2---------------|
A--------------------------5-----|
F--------------------------------|
C--------------------------------|
G--------------------------------|
D--------------------------------|
A--------------------------------|
E--------------------------------|
                                 |
guitar 2 (dist)                  |
                                 |
D--------------------------------|
A--------------------------------|
F--------------------------------|
C--------------------------------|
G--------------------------------|
D5-------------------------------|
A3-------------------------------|
E--------------------------------|

verse 2

guitar 2 (dist)

D--------------------------------|---------------------------------|
A--------------------------------|---------------------------------|
F--------------------------------|---------------------------------|
C--------------------------------|---------------------------------|
G--------------------------------|---------------------------------|
D4-4-------------4-4-------------|------------------2-----2--------|
A2-2-------------2-2-------------|--5-----5-------0-0---000-----00-|
E--------------------------------|3-3---333-----3------------------|


guitar 2 (dist)

D--------------------------------|---------------------------------|
A--------------------------------|---------------------------------|
F--------------------------------|---------------------------------|
C--------------------------------|---------------------------------|
G--------------------------------|---------------------------------|
D4-4-------------4-4-------------|7-7---777-----7-2-2---222---2-22-|
A2-2-------------2-2-------------|5-5---555-----5-0-0---000---0-00-|
E--------------------------------|---------------------------------|

Chorus 2

guitar 3 (lead)

D--------------------------------|--------------------------------|
A--------------------------------|--------------------------------|
F--------------------------------|--------------------------------|
C------------6---7---6-4---------|6---6-7---6-----6---6-7---6-----|
G----4-4-7-----------------7---7-|--------------7-----------------|
D--------------------------------|--------------------------------|
A--------------------------------|--------------------------------|
E--------------------------------|--------------------------------|
                                 |
guitar 2 (dist)                  |
                                 |
D--------------------------------|---------------------------------|
A--------------------7-777777x555|---------------------------------|
F--------------------5-555555x555|---------------------------------|
C--------------------6-666666x666|---------------------------------|
G----------------7---7-777777x777|--------79999999-----------------|
D4---4-----------5---5-555555x555|7---7-xx--------2---2------------|
A2---2-2255544400----------------|5---5-xx577777770---0-0055544400-|
E--------------------------------|---------------------------------|


guitar 3 (lead)

D--------------------------------|----------------------------4542-|
A--------------------------------|---------------------------------|
F--------------------------------|---------------------------------|
C--------------------------------|6---6---7---6---6---6-7---6------|
G----4---6---7---0---2---6---7---|---------------------------------|
D--------------------------------|---------------------------------|
A--------------------------------|---------------------------------|
E--------------------------------|---------------------------------|
                                 |
guitar 2 (dist)                  |
                                 |
D--------------------------------|---------------------------------|
A--------------------------------|---------------------------------|
F--------------------8-8---------|---------------------------------|
C----------------7---7-7-----9---|---------------------------------|
G----------------7---7-7-----7---|--------79999777-----------------|
D4---4-----------5--55-5---5-5---|7---7-xx-------------------------|
A2---2-2255544400----------------|5---5-xx577775554---4------------|
E--------------------------------|----------------2---2-2255544422-|


guitar 3 (lead)

D4---------------2---------------|4---------------5---------------|
A--------------------------------|--------------------------------|
F--------------------------------|--------------------------------|
C--------------------------------|--------------------------------|
G--------------------------------|--------------------------------|
D--------------------------------|--------------------------------|
A--------------------------------|--------------------------------|
E--------------------------------|--------------------------------|
                                 |
guitar 4 (lead dbl)              |
                                 |
D4---------------2---------------|4---------------2---------------|
A--------------------------------|--------------------------5-----|
F--------------------------------|--------------------------------|
C--------------------------------|--------------------------------|
G--------------------------------|--------------------------------|
D--------------------------------|--------------------------------|
A--------------------------------|--------------------------------|
E--------------------------------|--------------------------------|
                                 |
guitar 2 (dist)                  |
                                 |
D--------------------------------|--------------------------------|
A--------------------------------|--------------------------------|
F--------------------------------|--------------------------------|
C--------------------------------|--------------------------------|
G--------------------------------|--------------------------------|
D5-------------------------------|5-------------------------------|
A3-------------------------------|3-------------------------------|
E--------------------------------|--------------------------------|


bridge

guitar 3 (lead)

D--------5---9---9---------------|--------5---9---9-----11----12--|
A--------------------9-9---------|--------------------9-----------|
F--------------------------------|--------------------------------|
C--------------------------------|--------------------------------|
G--------------------------------|--------------------------------|
D--------------------------------|--------------------------------|
A--------------------------------|--------------------------------|
E--------------------------------|--------------------------------|
                                 |
guitar 2 (dist)                  |
                                 |
D--------------------------------|---------------------------------|
A--------------------------------|---------------------------------|
F--------8---6-------------------|------8-8---------------68888999-|
C--------x---x-------------------|------x-x---9--------------------|
G--7-----7---7-------------------|--7---7-7---7---4-4---4-46666777-|
D5-5---555---5-----4-------------|5-5--55-5-5-5---4-4---4----------|
A----------------2-2---2255544400|----------------2-2---2----------|
E--------------------------------|---------------------------------|


guitar 3 (lead)

D--------5---9---9---------------|--------5---5---4---4-8---8---9-|
A--------------------9-9---------|--------------------------------|
F--------------------------------|--------------------------------|
C--------------------------------|--------------------------------|
G--------------------------------|--------------------------------|
D--------------------------------|--------------------------------|
A--------------------------------|--------------------------------|
E--------------------------------|--------------------------------|
                                 |
guitar 2 (dist)                  |
                                 |
D--------17----------------------|--------------------------------|
A------------21------------------|--------------------------------|
F--------------------------------|--------6--6--6-----------------|
C--------------------------------|--------7--7--7---6-----7--4-6--|
G--7-----------------------------|--7-----7--7--7---6-----6--6-6--|
D5-5---5-----------4-------------|5-5---5-5--5--5-4-4---4-4--4-4--|
A----------------2-2---2-5--4--0-|--------------------------------|
E--------------------------------|--------------------------------|


Interlude  in 7/4  play 4x

guitar 2 (dist)

D----------------------------|
A----------------------------|
F----------------------------|
C----------------------------|
G----------------------------|
D----------------------------|
A2-02-x2-02-x2-02-x2-02-x2320|
E----------------------------|


Outro Chorus back in 4/4

guitar 3 (lead)

D--------------------------------|
A--------------------------------|
F--------------------------------|
C----------------7---6-4---------|
G--------------------------------|
D--------------------------------|
A--------------------------------|
E--------------------------------|
                                 |
guitar 2 (dist)                  |
                                 |
D--------------------------------|
A--------------------------------|
F--------------------------------|
C----------------9---------------|
G----------------7---------------|
D4---------------5---------------|
A2-------------------------------|
E--------------------------------|


guitar 3 (lead)

D--------------------------------|--------------------------------|
A--------------------------------|--------------------------------|
F----------------------6---------|--------------------------------|
C------------6---7---6-----6---7-|6-----------6---7---6-4---------|
G----4-4-7-----------------------|----4-4-7-----------------7---7-|
D--------------------------------|--------------------------------|
A--------------------------------|--------------------------------|
E--------------------------------|--------------------------------|
                                 |
guitar 2 (dist)                  |
                                 |
D--------------------------------|--------------------------------|
A--------------------7-777777x555|--------------------------------|
F--------------------5-555555x555|--------------------8-8---------|
C--------------------6-666666x666|----------------7---7-7-----9---|
G----------------7---7-777777x777|----------------7---7-7-----7---|
D4---4-----------5---5-555555x555|4---4-----------5--55-5---5-5---|
A2---2-2255544400----------------|2---2-2255544400----------------|
E--------------------------------|--------------------------------|

guitar 3 (lead)

D--------------------------------|
A--------------------------------|
F--------------------------------|
C6---6-7---6-----6---6-7---6-----|
G--------------7-----------------|
D--------------------------------|
A--------------------------------|
E--------------------------------|
                                 |
guitar 2 (dist)                  |
                                 |
D--------------------------------|
A--------------------------------|
F--------------------------------|
C--------------------------------|
G--------79999999----------------|
D7---7-xx--------2---2-----------|
A5---5-xx577777770---0-0055544400|
E--------------------------------|


guitar 3 (lead)

D--------------------------------|--------------------------------|
A--------------------------------|--------------------------------|
F--------------------------------|----------------------6---9---8-|
C------------6---7---6-4---------|------------6---7---6-----------|
G----4-4-7-----------------------|----4-4-7-----------------------|
D--------------------------------|--------------------------------|
A--------------------------------|--------------------------------|
E--------------------------------|--------------------------------|
                                 |
guitar 2 (dist)                  |
                                 |
D--------------------------------|---------------------------------|
A--------------------7-777777x555|--------------------7-777777x555-|
F--------------------5-555555x555|--------------------5-555555x555-|
C--------------------6-666666x666|--------------------6-666666x666-|
G----------------7---7-777777x777|----------------7---7-777777x777-|
D4---4-----------5---5-555555x555|4---4-----------5---5-555555x555-|
A2---2-2255544400----------------|2---2-2255544400-----------------|
E--------------------------------|---------------------------------|

guitar 3 (lead)

D--------------------------------|--------------------------------|
A--------------------------------|--------------------------------|
F--------------------------------|--------------------------------|
C------------6---7---6-4---------|6---6-7---6-----6---6-7---6-----|
G----4-4-7-----------------7---7-|--------------7-----------------|
D--------------------------------|--------------------------------|
A--------------------------------|--------------------------------|
E--------------------------------|--------------------------------|
                                 |
guitar 2 (dist)                  |
                                 |
D--------------------------------|---------------------------------|
A--------------------------------|---------------------------------|
F--------------------8-8---------|---------------------------------|
C----------------7---7-7-----9---|---------------------------------|
G----------------7---7-7-----7---|--------79999999-----------------|
D4---4-----------5--55-5---5-5---|7---7-xx--------2---2------------|
A2---2-2255544400----------------|5---5-xx577777770---0-0055544400-|
E--------------------------------|---------------------------------|

Outro

guitar 3 (lead)

D--------------------------------|----------------------------4542-|
A--------------------------------|---------------------------------|
F--------------------------------|---------------------------------|
C--------------------------------|6---6---7---6---6---6-7---6------|
G----4---6---7---0---2---6---7---|---------------------------------|
D--------------------------------|---------------------------------|
A--------------------------------|---------------------------------|
E--------------------------------|---------------------------------|
                                 |
guitar 2 (dist)                  |
                                 |
D--------------------------------|---------------------------------|
A--------------------------------|---------------------------------|
F--------------------8-8---------|---------------------------------|
C----------------7---7-7-----9---|---------------------------------|
G----------------7---7-7-----7---|--------79999777-----------------|
D4---4-----------5--55-5---5-5---|7---7-xx-------------------------|
A2---2-2255544400----------------|5---5-xx577775554---4------------|
E--------------------------------|----------------2---2-2255544422-|

guitar 3 (lead)

D--------------------------------|--------------------------------|
A--------------------------------|--------------------------------|
F--------------------------------|--------6-----------------------|
C6---6---7---6---6---6-7---6-----|6---6-6-----6---7---6---4---6---|
G--------------------------------|--------------------------------|
D--------------------------------|--------------------------------|
A--------------------------------|--------------------------------|
E--------------------------------|--------------------------------|
                                 |
guitar 2 (dist)                  |
                                 |
D--------------------------------|--------------------------------|
A--------------------------------|--------------------------------|
F--------------------------------|--------------------------------|
C--------------------------------|--------------------------------|
G--------79999777----------------|7-7-----7-----7-4-4-----4-----4-|
D7---7-xx------------------------|5-5---555-----5-2-2---222-----2-|
A5---5-xx577775554---4-----------|--------------------------------|
E----------------2---2-2255544422|--------------------------------|

guitar 2 (dist)

D--------------------------------|
A--------------------------------|
F--------------------------------|
C--------------------------------|
G--------------------------------|
D4---4---4---4---4---4-4---4-----|
A2---2---2---2---2---2-2---2-----|
E--------------------------------|


lyrics

Beauty of Annihilation

Verse 1
All my atrocities
Come by way of reciprocity
I’m chewing the bones of my own reprieve

Death be my dignity
Execute hemlock philosophy
Poison fills the cup of the carpenter

Pre-chorus 1
NO!
	Love lost on me
MORE!
	Life so costly

No reason
For grieving

No
	LOVE LOST ON ME
More
	LIFE SO COSTLY

Bring me down with
	SEVEN POINT SIX TWO HIGH VELOCITY

Chorus
I can see them everywhere they’re
All around me they’re
Waiting for me.

Descending un-
Relenting.

Beauty of annihilation.

Verse 2
Your curiosity
Feeding off my animosity

And reason
Is treason

DOWN! With all that’s good and clean and you can’t f**king annihilate me!

Bring you down with
	SEVEN POINT NINE TWO AND NO IMPUNITY!

Chorus 2
Same as previous choruses

Bridge
Death so beautiful
Looks so beautifu-ul
Death so beautiful
Looks so beautiful on me

Instrumental part

Outro Chorus
I can see them everywhere
I can see them everywhere I go-o
I can see them everywhere they’re
All around me they’re waiting for me

I can see them everywhere
I can see them everywhere I go
I can see them everywhere they’re
All around me they’re waiting for me

Descending un-
Relenting

Beauty of annihilation looks
Like your prophet was mistaken Is
Life really gone or just been wasted
Doom so close that I can taste it.
            
Submit corrections


        Beauty Of Annihilation lessons Hard to play? Try these video lessons and learn fast Beauty Of Annihilation lessons
        
↑ Back to top | Tablatures and chords for acoustic guitar and electric guitar, ukulele, drums are parodies/interpretations of the original songs. You may use it for private study, scholarship, research or language learning purposes only