» » »

Elena Siegman - Beauty Of Annihilation Bass

Artists:  A B C D E F G H I J K L M N O P Q R S T U V W X Y Z # 

Beauty Of Annihilation Bass

(ver. 1) Click to play this song!
Elena Siegman
 Rating:
4/5 (4 votes)

 Beauty Of Annihilation lessons Tabs too difficult? Try these video lessons and learn fast
 
                Please listen to the song for the exact rythm.


Intro 1

G |------------------------------------------------------------------------------------|
A |------------------------------------------------------------------------------------|
D |------------------------------------------------------------------------------------|
G |---7--7----6----7----3333-3333-3333-3333----7---7-7-7---6---7---7-7-7--3-3-3--3-3-3-|

G |---------------------------------------------------------------------------------|
A |---------------------------------------------------------------------------------|
D |---------------------------------------------------------------------------------|
G |-7777-7777-7777-7777-3333-3333-3333-3333-7777-7777-7777-7777-3333-3333-3333-3333-|

G |------------------------------------------------------------------------------------------|
A |------------------------------------------------------------------------------------------|
D |-----------------------------------------5555-5555-5555-5555------------------------------|
G |-7777-7777-7777-7777-3333-3333-3333-3333---------------------2222-2222-2222-2222---3----3-|


Intro 2 (Main Riff)

G |-------------------------------------------------------------------|
A |-------------------2---2-------------------------------------------|
D |-2---2---5-3---------------5---5---5---5-7-7-7-7---------5---4---0-|
G |-------------5-3---------------------------------5---5-------------|

G |-----------------------------------------------------------------------|
A |-----------------------------------------------------------------------|
D |-2---2---5-4-0-----4-4-----5---5---5---5-7-7-7-7-5---------------------|
G |---------------3---------3---------------------------2---2---5-4-2---3-|


Verse 1

G |-----------------------------------------------------------|
A |-----------------------------------------------------------|
D |-2-2---2-2---------------------2-2---2-2---5-5-------------|
G |-------------3-3---3-3---2-2---------------------5-5---2-2-|

G |-------------------------------------|
A |-------------------------------------|
D |-2-2---2-2---------------------------|
G |-------------3-3--3-3--3-5-5--5-5--5-|


Chorus

G |-------------------------------------------------------------------|
A |-------------------2---2-------------------------------------------|
D |-2---2---5-3---------------5---5---5---5-7-7-7-7---------5---4---0-|
E |-------------5-3---------------------------------5---5-------------|

G |-----------------------------------------------------------------------|
A |-----------------------------------------------------------------------|
D |-2---2---5-4-0-----4-4-----5---5---5---5-7-7-7-7-5---------------------|
E |---------------3---------3---------------------------2---2---5-4-2---3-|


Verse 2

G |-------------------------------------|
A |-------------------------------------|
D |-2-2---2-2---------------------------|
E |-------------3-3--3-3--3-5-5--5-5--5-|

G |-------------------------------------|
A |-------------------------------------|
D |-2-2---2-2---5-5--5-5--5-------------|
E |-------------------------5-5--5-5--5-|


Chorus

G |-------------------------------------------------------------------|
A |-------------------2---2-------------------------------------------|
D |-2---2---5-3---------------5---5---5---5-7-7-7-7---------5---4---0-|
E |-------------5-3---------------------------------5---5-------------|

G |-----------------------------------------------------------------------|
A |-----------------------------------------------------------------------|
D |-2---2---5-4-0-----4-4-----5---5---5---5-7-7-7-7-5---------------------|
E |---------------3---------3---------------------------2---2---5-4-2---3-|


Bridge

G |-----------------------------------------------------------------------|
A |-----------------------------------------------------------------------|
D |-3---3-----5-----4---4---2-2---2-5---4-----5---4-4-------2-2---2-4-4-5-|
E |---------3-----3-----------------------5-3-----------5-----------------|

G |------------------------------------------------------------------------------|
A |-----------------------4-------------------------------------------555-22-444-|
D |---5-----5555-4444---2-----2-555-444-00-----5-----2-2-2-----4-----------------|
E |-3-----3-----------------------------------3-----3---------2-----2------------|


Interlude

G |---------------------------------------------------------------------------|
A |---------------------------------------------------------------------------|
D |-2-02---2-02---2-02---2-02---2-3-2-0---2-02---2-02---2-02---2-02---2-3-2-0-|
E |---------------------------------------------------------------------------|


Outro Chorus

G |-----------------------------------------------------------------|
A |---------------------------2---2---------------------------------|
D |-2---5---2---2---5-3---------------5---2---2---5-3-------4-4---5-|
E |---------------------5-3---------------------------5-3-------3---|

G |--------------------------------------------------------------------|
A |----------------------------------------------------------2---2-----|
D |-5---5---5-7-7-7-7---------5-4-0---2---2---5-3-0------------------5-|
E |-------------------5---5---------------------------3----------------|

G |----------------------------------------------------------------------------------------------|
A |-------------------2---2----------------------------------------------------------------------|
D |-2---2---5-3-0-------------5---2---2---5-3-------4-4-----5----5---5---5-7-7-7-----------5-4-0-|
E |---------------3---------------------------5-3---------3------------------------5---5---------|


Outro

G |-------------------------------------------------------------------|
A |-------------------------------------------------------------------|
D |-2---2---5-4-0-----4-4-----5---5---5---5-7-7-7-7-5-----------------|
E |---------------3---------3---------------------------2---2---5-4-2-|

G |-----------------------------------------------------------------------------------------------|
A |-----------------------------------------------------------------------------------------------|
D |-5---5---5-7-7-7-7-5---------------------------------------------------------------------------|
E |-----------------------2---2---5-3-0---3-3---3-3---3-0-0---0-0---2---2---2---2---2---2---2---2-|
            
Submit corrections


        Beauty Of Annihilation lessons Hard to play? Try these video lessons and learn fast Beauty Of Annihilation lessons
        
↑ Back to top | Tablatures and chords for acoustic guitar and electric guitar, ukulele, drums are parodies/interpretations of the original songs. You may use it for private study, scholarship, research or language learning purposes only