Home » E » Eisley »

Eisley - Better Love Tabs

Artists:  A B C D E F G H I J K L M N O P Q R S T U V W X Y Z # 

Better Love Tabs

(ver. 3) Click to play this song!
Eisley
Intro / NC 
e|-------------|------------------|-------------|------------------|
B|-------------|------------------|-------------|------------------|
G|-----0----0--|-----0---------0--|-----0----0--|-----0---------0--|
D|-------------|------------------|-------------|------------------|
A|-7-7---7-7---|-7-7---7s5-5-5----|-7-7---7-7---|-7-7---7s5-5-5----|
E|-------------|------------------|-------------|------------------|

Verse 1
Em        G Em                            G       Em
How can I unwind you, (slipping in my own blood),
Em                  G     Em    G             
When I can't unwind myself?
Em               G     Em                          G     Em
And oh, God, why can't I stop, (licking on my own wounds)
Em                        G    Em                    
when I've found my place with you?  (Oh Oh Oh Oh...)

Pre-Chorus
NC 
e|---------------|-----------------------|---------------|-----------------------|
B|---------------|---------------8-8-8-8-|---------------|---------------8-8-8-8-|
G|--7h9-9-9-9-9--|-----------------------|--7h9-9-9-9-9--|-----------------------|
D|---------------|--7h9-9-9--------------|---------------|--7h9-9-9--------------|
A|---------------|------------7-7--------|---------------|------------7-7--------|
E|---------------|-----------------------|---------------|-----------------------|
  Make me a better love. Make me better, love. Make me a better love.

Chorus
            C       G         C         Em  
'Cause I've finally found out you're on my side
       C              G         Am
with a bullet for the bad guys. Hallelujah
            C       G         C         Em  
'Cause I've finally found out you're on my side
       C                    G           Am
and if you're my guide, I'm your guide. Hallelujah.

Verse 2
Em              G      Em                            G      Em
Fear finds weakness in numbers. (That's why we stick close)
Em                           G     Em               G  Em 
We're gallant, we're strong, we're safe. (Oh oh oh oh)
Em                               G     Em                        G    Em
You chose me, you're the first born, and an angel. (You're so brave)
Em              G   Em       G
Now I can brave myself.

Pre-Chorus

Chorus
            C       G         C         Em  
'Cause I've finally found out you're on my side
       C              G         Am
with a bullet for the bad guys. Hallelujah
            C       G         C         Em  
'Cause I've finally found out you're on my side
       C                    G           Am
and if you're my guide, I'm your guide. Hallelujah.

Solo
  C            G             C                  Em
e|------------|---------------|--------------|------------------|
B|-------8----|---------7-----|--------5-----|------------------|
G|-7h9--------|--7h9----------|--7h9---------|--5h7-------------|
D|------------|---------------|--------------|--------2~~~------|
A|------------|---------------|--------------|------------------|
E|------------|---------------|--------------|------------------|

   C                         G                         
e|-12-12-12-12-12-12-12-12-|-12-12-12-12-12-12-12-12-|
B|-13-13-13-13-13-13-13-13-|-12-12-12-12-12-12-12-12-|
G|-14-14-14-14-14-14-14-14-|-14-14-14-14-14-14-14-14-|
D|-14-14-14-14-14-14-14-14-|-14-14-14-14-14-14-14-14-|
A|-------------------------|-------------------------|
E|-------------------------|-------------------------|

   Am                      Em              Em
e|-15-15-15-15-15-15-15--|-12~----------|--0~0~~~----------|
B|-12-12-12-12-12-12-12--|-12~----------|--0~0~~~----------|
G|-12-12-12-12-12-12-12--|-12~----------|--0~0~~~----------|
D|-----------------------|--------------|--2~2~~~----------|
A|-----------------------|--------------|--2~2~~~----------|
E|-----------------------|--------------|--0~0~~~----------|

Pre-Chorus
  
Chorus
            C       G         C         Em  
'Cause I've finally found out you're on my side
       C              G         Am
with a bullet for the bad guys. Hallelujah
            C       G         C         Em  
'Cause I've finally found out you're on my side
       C                    G           Am
and if you're my guide, I'm your guide. Hallelujah.            
Submit corrections

↑ Back to top | Tablatures and chords for acoustic guitar and electric guitar, ukulele, drums are parodies/interpretations of the original songs. You may use it for private study, scholarship, research or language learning purposes only