Home » E » Eels »

Eels - A Daisy Through Concrete Bass

Artists:  A B C D E F G H I J K L M N O P Q R S T U V W X Y Z # 

A Daisy Through Concrete Bass

(ver. 1) Click to play this song!
Eels
[Intro]
G|------------------------|------------------------|
D|------------------------|------------------------|
A|8-------8---6-------6-x-|8-------8-x-6-------6-x-|
E|----8-----------6-------|----8-----------6-------|
  1 + 2 + 3 + 4 + 5 + 6 + |1 + 2 + 3 + 4 + 5 + 6 + 
 
[Verse 1] [0:08]
  Wake up the dying...
G|------------------------|------------------------|
D|------------------------|------------------------|
A|8-------8---6-------6---|5-------5---6-------6(x)| x3
E|----8-----------6-------|----5-----------6-------|
  1 + 2 + 3 + 4 + 5 + 6 + |1 + 2 + 3 + 4 + 5 + 6 + 
 
[Chorus 1] [0:22]
  When I walk myself...
G|------------------------|------------------------|
D|------------------------|------------------------|
A|8-------8---7-------7---|6-------6---5-------5---| x2
E|----8-----------8-------|----6-----------6-------|
  1 + 2 + 3 + 4 + 5 + 6 + |1 + 2 + 3 + 4 + 5 + 6 + 
 
G|------------------------|--------------------------|
D|------------------------|--------------------------|
A|8-------8---7-------7---|10------10--12----10------|
E|----8-----------8-------|----------------------12\-|
  1 + 2 + 3 + 4 + 5 + 6 + |1 + 2 + 3 + 4  +  5 + 6 + 
 
G|------------------------|--------------------------|
D|------------------------|--------------------------|
A|8\----------------------|--------------------------|
E|------------------------|--------------------------|
  1 + 2 + 3 + 4 + 5 + 6 + |1 + 2 + 3 + 4  +  5 + 6 + 
 
[Verse 2] [0:39]
  Pink and brown babies...
G|------------------------|------------------------|
D|------------------------|------------------------|
A|8-------8---6-------6---|5-------5---6-------6---| x3
E|----8-----------6-------|----5-----------6-------|
  1 + 2 + 3 + 4 + 5 + 6 + |1 + 2 + 3 + 4 + 5 + 6 + 
 
[Chorus 2] [0:52]
  ...walk myself down...
G|------------------------|------------------------|
D|------------------------|------------------------|
A|8-------8(x)7-------7---|6-------6---5-------5---| x3
E|----8-----------8-------|----6-----------6-------|
  1 + 2 + 3 + 4 + 5 + 6 + |1 + 2 + 3 + 4 + 5 + 6 + 
 
G|------------------------|--------------------------|
D|------------------------|--------------------------|
A|8-------8-x-7-------7---|10------10--12----10------|
E|----8-----------8-------|----------------------12\-|
  1 + 2 + 3 + 4 + 5 + 6 + |1 + 2 + 3 + 4  +  5 + 6 + 
 
[Break] [1:06]
G|------------------------|------------------------|
D|------------------------|------------------------|
A|8-------8---6-------6-x-|5-------5-x-6-------6---| x2
E|----8-----------6-------|----5-----------6-------|
  1 + 2 + 3 + 4 + 5 + 6 + |1 + 2 + 3 + 4 + 5 + 6 + 
 
[Chorus 3] [1:14]
  Here we go...
G|------------------------|------------------------|
D|------------------------|------------------------|
A|8-------8---7-------7(x)|6-------6---5-------5---| x2
E|----8-----------8-------|----6-----------6-------|
  1 + 2 + 3 + 4 + 5 + 6 + |1 + 2 + 3 + 4 + 5 + 6 + 
 
G|------------------------|--------------------------|
D|------------------------|--------------------------|
A|8-------8---7-------7---|10------10--12----10------|
E|----8-----------8-------|----------------------12\-|
  1 + 2 + 3 + 4 + 5 + 6 + |1 + 2 + 3 + 4  +  5 + 6 + 
 
[Verse 3] [1:27]
G|------------------------|------------------------|
D|------------------------|------------------------|
A|8-------8---6-------6-x-|5-------5---6-------6---|
E|----8-----------6-------|----5-----------6-------|
  1 + 2 + 3 + 4 + 5 + 6 + |1 + 2 + 3 + 4 + 5 + 6 + 
 
  Airplane is flying...
G|------------------------|------------------------|
D|------------------------|------------------------|
A|8-------8---6-------6(x)|5-------5---6-------6---| x3
E|----8-----------6-------|----5-----------6-------|
  1 + 2 + 3 + 4 + 5 + 6 + |1 + 2 + 3 + 4 + 5 + 6 + 
 
[Chorus 4] [1:46]
  When I walk myself...
G|------------------------|------------------------|
D|------------------------|------------------------|
A|8-------8---7-------7---|6-------6---5-------5---| x2
E|----8-----------8-------|----6-----------6-------|
  1 + 2 + 3 + 4 + 5 + 6 + |1 + 2 + 3 + 4 + 5 + 6 + 
 
G|------------------------|-----------------------------|
D|------------------------|-----------------------------|
A|8-------8---7-------7---|10------10-10-h12---p10------|
E|----8-----------8-------|-------------------------12\-|
  1 + 2 + 3 + 4 + 5 + 6 + |1 + 2 + 3  +  4  +  5 + 6 + 
 
[Outro] [1:58]
G|------------------------|------------------------|
D|------------------------|------------------------|
A|8-------8---6---------x-|5-------5-x-6-----------| x4
E|----8-----------6---1---|----5-----------6---1---|
  1 + 2 + 3 + 4 + 5 + 6 + |1 + 2 + 3 + 4 + 5 + 6 + 
 
G|------------------------|------------------------|
D|------------------------|------------------------|
A|8r----------------------|------------------------|
E|------------------------|------------------------|
  1 + 2 + 3 + 4 + 5 + 6 + |1 + 2 + 3 + 4 + 5 + 6 + 
            
Submit corrections

↑ Back to top | Tablatures and chords for acoustic guitar and electric guitar, ukulele, drums are parodies/interpretations of the original songs. You may use it for private study, scholarship, research or language learning purposes only