Home » E » Edvard Grieg »

Edvard Grieg - Morning From Peer Gynt Tabs

Artists:  A B C D E F G H I J K L M N O P Q R S T U V W X Y Z # 

Morning From Peer Gynt Tabs
Version #3
Edvard Grieg


Copy URL
e|---9---6---4---2---4---6---9---6---4---2---4---6---4---6---9---6---9---11---6---11---9---11---6---11---9--|
B|----------------------------------------------------------------------------------------------------------|
G|----------------------------------------------------------------------------------------------------------|
D|----------------------------------------------------------------------------------------------------------|
A|----------------------------------------------------------------------------------------------------------|
E|----------------------------------------------------------------------------------------------------------|

e|---9---6---4---2---4---6---9---6---4---2---4---6---4---6---9---6---9---11---6---11---9---11---6---11---9--|
B|----------------------------------------------------------------------------------------------------------|
G|----------------------------------------------------------------------------------------------------------|
D|----------------------------------------------------------------------------------------------------------|
A|----------------------------------------------------------------------------------------------------------|
E|----------------------------------------------------------------------------------------------------------|

e|---9---6---4---2---4---6---9---6---4---2---4---6---4---6---9---6---9---11---6---11---9---11---6---11---9--|
B|----------------------------------------------------------------------------------------------------------|
G|----------------------------------------------------------------------------------------------------------|
D|----------------------------------------------------------------------------------------------------------|
A|----------------------------------------------------------------------------------------------------------|
E|----------------------------------------------------------------------------------------------------------|

e|---9---6---4---2---4---6---9---6---4---2---4---6---4---6---9---6---9---11---6---11---9---11---6---11---9--|
B|----------------------------------------------------------------------------------------------------------|
G|----------------------------------------------------------------------------------------------------------|
D|----------------------------------------------------------------------------------------------------------|
A|----------------------------------------------------------------------------------------------------------|
E|----------------------------------------------------------------------------------------------------------|            
Submit corrections

↑ Back to top | Tablatures and chords for acoustic guitar and electric guitar, ukulele, drums are parodies/interpretations of the original songs. You may use it for private study, scholarship, research or language learning purposes only