Home » E » Edoardo Bennato »

Edoardo Bennato - Lisola Che Non Cè Tabs

Artists:  A B C D E F G H I J K L M N O P Q R S T U V W X Y Z # 

Lisola Che Non Cè Tabs

(ver. 1) Click to play this song!
Edoardo Bennato
[Intro]
        [G]              [C]
Eb|----3---------------3-----3-----|
Bb|----------0---------1-----1-----|
Gb|----0-------0-------0-----0-----|
Db|----------------0h2---0h2---0h2-| (x3)
Ab|--------------------------------|
Eb|3-------3-----------------------|
 
Eb|----3---------------3-----------|
Bb|----------0---------------0-----|
Gb|----0-------0-------0-------0---| (x2)
Db|--------------------------------|
Ab|--------------------------------|
Eb|3-------3-------3-------3-------|
 
 
[Verse 1]
           G
  Seconda stella a destra, questo è il
Eb|----3---------------3-----------|
Bb|----------0---------------0-----|
Gb|----0-------0-------0-------0---|
Db|--------------------------------|
Ab|--------------------------------|
Eb|3-------3-------3-------3-------|
 
      D           Dsus2  D           C
   cammino,                   e poi     dritto fino al
Eb|----------0-----0h2-------2-----|----------0---------------0-----|
Bb|----3-----------------3---------|----1---------1-----1---------1-|
Gb|----2-------2-------2-------2---|----0-------0-------0-------0---|
Db|0-------0-------0-------0-------|--------------------------------|
Ab|--------------------------------|3-------3-------3-------3-------|
Eb|--------------------------------|--------------------------------|
 
     G            G/F#              Em        B7
   mattino                  poi la strada la trovi
Eb|----3---------3---3-------3-----|----0-----------2---------2-----|
Bb|----------0-----------0-------0-|----0-----0-----0-----0---------|
Gb|----0-------0-------0-------0---|----------------2---2-------2---|
Db|--------------------------------|------------2-------------------|
Ab|--------------------------------|----------------2-------2-------|
Eb|3-------3-------3-------2-------|0-------0-----------------------|
 
     C                              G         D
   da te ,                porta all'  isola     
Eb|----0---------3-----------3-----|----------------0h2-------2-----|
Bb|----------1---------1-------1---|3---------0-----------3-------0-|
Gb|----0-------0-------0-----------|0-----0-----0-------2-------2---|
Db|--------------------------------|----0-----------0-------0-------|
Ab|3-------3-------3-------3-------|--------------------------------|
Eb|--------------------------------|3-------3-----------------------|
 
         G     C    G
  che non c'è
Eb|--3-----------------------------|
Bb|----------1------0--------------|
Gb|------------0----0--------------|
Db|----0h2-----2----0--------------|
Ab|--------------------------------|
Eb|3-------3--------3--------------|
 
 
[Verse 2]
 
(Rythm: D DU UDU) (ITA: pennate G GS SGS)
 
     G                     D     Dsus2 D
Forse questo ti sembrerà strano,
        C                         G     Gsus4 G
ma la ragione ti ha un pò preso la mano
 G/F# Em           B7    C
ed ora sei quasi convinto che,
         G               D       G    C  G
non può esistere un'isola che non c'è
 
 
[Verse 3]
      G      Gsus4 G       D     Dsus2 D
E a pensarci         che pazzia,
     G                  G    Gsus4 G
è una favola è solo fantasia
G/F#        Em             B7      C
     e chi è saggio chi è maturo lo sa,
         G      D         G   C  G
non può esistere nella realtà
 
 
[Chorus]
   Em            B7
Son d'accordo con voi
   Em         B7
non esiste una terra
    C          G        D     Dsus2  D
dove non ci son santi nè eroi
    Am7        D
e se non ci son ladri,
     Am7         D
se non c'è mai la guerra
      Am7               D
forse è proprio l'isola
      Am7             D    Dsus2 D
che non c'è... che non c'è 
 
Eb|--------------------------|----------------0h2--|
Bb|-1-----3----1-----0-------|-----3----3-----3----|
Gb|-2-------------------2----|----------------2----|
Db|-2---2----2-----2-------2-|-0-----2----0---0----|
Ab|-0------------------------|---------------------|
Eb|--------------------------|---------------------|
 
     G  Gsus4 G        D      Dsus4 D
E non è         un'invenzione,
    C                  G     Gsus4 G
e neanche un gioco di parole
G/F#       Em      B7       C
     se ci credi ti basta perchè,
         G       D       G   C G
poi la strada la trovi da te
 
__________________________________________________
TAB armonica a bocca (diatonica in FA)
(1-2-3...=num. foro)
(^=soffiata - ~=bending - " "=aspirata)
 
    [G]    [D]      [C]     [G]
5 5  6     6   6    6 6    6 6 6 
^    ^     ~   ^    ^ ~    ^   ^   
 
[Em]  [B7][C]   [G] [D] [G]
6 7   7  7 6    6 5 5  6 6  6 5 5
^ ^      ^ ~    ^   ^  ^ ~  ^   ^
 
   (riadattamento x chitarra)
Eb|--------------------------------------|
Bb|--------------------------------------|
Gb|-4/5--5/7---9b--7----7-9b----9h7-9-7--|
Db|--------------------------------------|
Ab|--------------------------------------|
Eb|--------------------------------------|
 
Eb|--------------------------------------|
Bb|-7/8--7--8----------------------------|
Gb|-----------9b---7-------7-9b---7------|
Db|------------------10-9-----------10-9-|
Ab|--------------------------------------|
Eb|--------------------------------------|
__________________________________________________
 
 
[Chorus]
   Em            B7
Son d'accordo con voi
      Em         B7
niente ladri e gendarmi
      C        G     D   Dsus2 D
ma che razza di isola è?
      Am7       D
Niente odio e violenza,
     Am7     D
nè soldati nè armi
       Am7              D
forse è proprio l'isola
       Am             D    Dsus2 D
che non c'è... che non c'è
 
 
[Verse 4]
       G
Seconda stella a destra
           D        Dsus2 D
questo è il cammino
     C              G        G/F#
e poi dritto fino al mattino
      Em      B7        C
non ti puoi sbagliare perchè,
        G       D       G     G7
quella è l'isola che non c'è!
 
 
[Outro]
    C           D
E ti prendono in giro
  G        G7   C
se continui a cercarla
      G         D        G    G7
ma non darti per vinto perchè
         C        D
chi ci ha già rinunciato
    G G7      C
e ti ride alle spalle
       G          D        C
forse è ancora più pazzo di te!
 
   [C/B]    [C/A]     [G]
Eb|--------------------3-----||
Bb|---1------1------0--0-----||
Gb|---0-------------0--0-----||
Db|--------------------0-----||
Ab|---3---2---0--------2-----||
Eb|--------------3-----3-----||
 
            
Submit corrections

↑ Back to top | Tablatures and chords for acoustic guitar and electric guitar, ukulele, drums are parodies/interpretations of the original songs. You may use it for private study, scholarship, research or language learning purposes only