Home » E » Eden Ahbez »

Eden Ahbez - And Tabs

Artists:  A B C D E F G H I J K L M N O P Q R S T U V W X Y Z # 

And Tabs

(ver. 2) Click to play this song!
Eden Ahbez
[Intro]
e|---------------------------------------------------------------------------|
B|---------------------------------------------------------------------------|
G|--9---------------------------9--------------------------------------------|
D|---------------------------------------------------------------------------|
A|--8------------------------------------------------------------------------|
E|------------------------------8--------------------------------------------|
      This is just                I can't deny that I've
      another sad song               been needing one
e|---------------------------------------------------------------------------|
B|---------------------------------------------------------------------------|
G|--14--------------------------16-------------------------------------------|
D|---------------------------------------------------------------------------|
A|---------------------------------------------------------------------------|
E|--13--------------------------15-------------------------------------------|
      And that the world           And we did nothing,
      is always at fault           how did we do wrong
e|---------------------------------------------------------------------------|
B|---------------------------------------------------------------------------|
G|--17--------------------------12-------------------------------------------|
D|---------------------------------------------------------------------------|
A|---------------------------------------------------------------------------|
E|--17--------------------------12-------------------------------------------|
      And I've been thinking       The world would break us out 
      that when we thought           out we weren't wrong
e|---------------------------------------------------------------------------|
B|---------------------------------------------------------------------------|
G|--14--------------------------16-------------------------------------------|
D|---------------------------------------------------------------------------|
A|---------------------------------------------------------------------------|
E|--13--------------------------15-------------------------------------------|
      But it's just never          And sonder kind of
     been the world outside        has me terrified
e|---------------------------------------------------------------------------|
B|---------------------------------------------------------------------------|
G|--2--2--2--2-------------------4--4--4--4---------------10--10--10--10-----|
D|---------------------------------------------------------------------------|
A|---------------------------------------------------------------------------|
E|--1--1--1--1-------------------3--3--3--3---------------10--10--10--10-----|
    And I'm so sorry I            Spend all my days        And I've been thinkin'
    can't find the time           over-preoccupied         'bout how I'd react
e|---------------------------------------------------------------------------|
B|---------------------------------------------------------------------------|
G|--2--2--4--4--5--5--------------5--5---------------------------------------|
D|---------------------------------------------------------------------------|
A|---------------------------------------------------------------------------|
E|--1--1--3--3--5--5--------------5--5---------------------------------------|
        If you were me and         And I know I
        I was ghosted out         should try more 
e|---------------------------------------------------------------------------|
B|---------------------------------------------------------------------------|
G|--0--0--0--0--2--2---------------------------2--2--4--4--4--4--------------|
D|---------------------------------------------------------------------------|
A|---------------------------------------------------------------------------|
E|--0--0--0--0--1--1---------------------------1--1--3--3--3--3--------------|
     But I've been so caught in my             Past the nothing
     own small sh*t that I can't see              around me
e|---------------------------------------------------------------------------|
B|---------------------------------------------------------------------------|
G|--------5--5--0--0-------------------------2--2--4--4----------------------|
D|---------------------------------------------------------------------------|
A|---------------------------------------------------------------------------|
E|--------5--5--0--0-------------------------1--1--3--3----------------------|
    But I've been trying really          Really f**king hard 
   f**king hard not to try so hard         to just let go

e|---------------------------------------------------------------------------|
B|---------------------------------------------------------------------------|
G|--------5--5--0--0-------------------------2--2--4--4----------------------|
D|---------------------------------------------------------------------------|
A|---------------------------------------------------------------------------|
E|--------5--5--0--0-------------------------1--1--3--3----------------------|
        Really f**king hard               Realize I've nowhere
        not to try so hard                    left to go

[Outro]
e|----10-----12------------|-------10----------------------------------------|
B|--8------------12---13---|-----8------13--12--10---------------------------|
G|-------------------------|-------------------------------------------------|
D|-------------------------|-------------------------------------------------|
A|-------------------------|-------------------------------------------------|
E|-------------------------|-------------------------------------------------|             
Submit corrections

↑ Back to top | Tablatures and chords for acoustic guitar and electric guitar, ukulele, drums are parodies/interpretations of the original songs. You may use it for private study, scholarship, research or language learning purposes only