Home » E » Echosmith »

Echosmith - Nothings Wrong Tabs

Artists:  A B C D E F G H I J K L M N O P Q R S T U V W X Y Z # 

Nothings Wrong Tabs

(ver. 1) Click to play this song!
Echosmith
e|---4-4-4-4-4-4-4-----------------------------------------------------------| Intro 
B|---------------------------------------------------------------------------|
G|---------------------------------------------------------------------------| We walk like there's nothing 
D|-------------------9-11-13-11-9---6-9-11-9---9-11-13-11-9---6-9-11-9-------| wrong 
A|---------------------------------------------------------------------------|
E|---------------------------------------------------------------------------|

e|---------------------------------------------------------------------------| Verse 1  
B|---0-5-4-2-0-2-------0-5-4-2-0-2------------------------------------ ------|
G|---------------1-1---------------1-1---------------------------------------| She's sitting alone in her 
D|---------------------------------------------------------------------------| chair/She covers her eyes with
A|---------------------------------------------------------------------------| her hair 
E|---------------------------------------------------------------------------|

e|---------------------------------------------------------------------------| Verse 1 
B|---0-7-7-9-7-5-5---0---7-7-9-2-5-5-0---------------------------------------|
G|---------------------------------------------------------------------------| She smokes one last cigarette 
D|------------------------------------------6-9-11-9-------------------------| and waits for the whole world 
A|---------------------------------------------------------------------------| to turn  
E|---------------------------------------------------------------------------|

e|---------------------------------------------------------------------------| Verse 1 
B|---0-5-4-2-0-2-------0-5-4-2-0-0-2-----------------------------------------|
G|---------------1-1-----------------1-1-------------------------------------| She's loving the smell in the 
D|---------------------------------------------------------------------------| air/She'd stop but she really 
A|---------------------------------------------------------------------------| doesn't care 
E|---------------------------------------------------------------------------|

e|---------------------------------------------------------------------------| Verse 1 
B|---7-7-9-2---7-7-9-2-5-5-0-------------------------------------------------|
G|---------------------------------------------------------------------------| What's she to do, wait for the 
D|--------------------------------6-9-11-9-----------------------------------| whole world to burn 
A|---------------------------------------------------------------------------|
E|---------------------------------------------------------------------------|

e|---------------------------------------------------------------------------| Verse 1 
B|---7-9-2-2-7-9-2-5---0-----------------------------------------------------|
G|---------------------------------------------------------------------------| Cause kids like us we don't 
D|---------------------------------------------------------------------------| know when to stop 
A|---------------------------------------------------------------------------|
E|---------------------------------------------------------------------------|

e|---4-7-4-7-4-7-9-4-2---0-2-4-2---0-2-4-2---4-7-4-7-4-7-9-4-2-2-0-----0-2-4-2-| Chorus 
B|-----------------------------------------------------------------2-----------|
G|-----------------------------------------------------------------------------| We walk, we walk, we just 
D|-----------------------------------------------------------------------------| keep walking/We move, we  
A|-----------------------------------------------------------------------------| move, we just keep moving 
E|-----------------------------------------------------------------------------| on 

e|---4-7-4-7-4-7-7-7-12-11-9-7---0-2-4-2---4-7-4-7-4-7-9-4-2-2-0-------------| Chorus 
B|---------------------------------------------------------------2-----------|
G|---------------------------------------------------------------------------| We sing, we sing, we sing at 
D|---------------------------------------------------------------------------| the top of our lungs/ We walk,
A|---------------------------------------------------------------------------| we walk, we walk like
E|---------------------------------------------------------------------------| nothing's wrong 
                                                                              

e|---4-4-4-4-4-4-4-----------------------------------------------------------| Chorus 
B|---------------------------------------------------------------------------| 
G|---------------------------------------------------------------------------| We walk like there's nothing 
D|----------------------9-11-13-11-9---6-9-11-9---9-11-13-11-9---6-9-11-9----| wrong 
A|---------------------------------------------------------------------------|
E|---------------------------------------------------------------------------|

e|---------------------------------------------------------------------------| Verse 2 
B|---0-5-4-2-0-2-------0-5-4-2-0-2-------------------------------------------|
G|---------------1-1---------------1-1---------------------------------------| He places a rose in her hair/
D|---------------------------------------------------------------------------| He stops for a moment and 
A|---------------------------------------------------------------------------| stares
E|---------------------------------------------------------------------------|

e|---------------------------------------------------------------------------| Verse 2 
B|---2-7-7-9-2-2---7-7-9-2-2-5-5-0-------------------------------------------|
G|---------------------------------------------------------------------------| Her beauty's a wonder, makes 
D|--------------------------------------6-9-11-9-----------------------------| him forget about the end 
A|---------------------------------------------------------------------------|
E|---------------------------------------------------------------------------|

e|---------------------------------------------------------------------------| Verse 2 
B|---2-7-7-9-2-2---9-2-2-5-5-0-----------------------------------------------|
G|---------------------------------------------------------------------------| Cause when it's all over, 
D|---------------------------------------------------------------------------| whose really gonna care 
A|---------------------------------------------------------------------------|
E|---------------------------------------------------------------------------|

e|---4-7-4-7-4-7-9-4-2---0-2-4-2---0-2-4-2---4-7-4-7-4-7-9-4-2-2-0-----0-2-4-2-| Chorus 
B|-----------------------------------------------------------------2-----------|
G|-----------------------------------------------------------------------------| We walk, we walk, we just 
D|-----------------------------------------------------------------------------| keep walking/We move, we  
A|-----------------------------------------------------------------------------| move, we just keep moving 
E|-----------------------------------------------------------------------------| on 

e|---4-7-4-7-4-7-7-7-12-11-9-7---0-2-4-2---4-7-4-7-4-7-9-4-2-2-0-------------| Chorus 
B|---------------------------------------------------------------2-----------|
G|---------------------------------------------------------------------------| We sing, we sing, we sing at 
D|---------------------------------------------------------------------------| the top of our lungs/ We walk,
A|---------------------------------------------------------------------------| we walk, we walk like
E|---------------------------------------------------------------------------| nothing's wrong 
                                                                              

e|---4-4-4-4-4-4-4-----------------------------------------------------------| Chorus 
B|---------------------------------------------------------------------------| 
G|---------------------------------------------------------------------------| We walk like there's nothing 
D|----------------------7/9------7/9-----------------------------------------| wrong/ooh ooh, ooh ooh  
A|---------------------------------------------------------------------------|
E|---------------------------------------------------------------------------|

e|---4-4-4-0X---------4-4-4-0X---------4-4-4-0X---------4-4-4-0X-------------| Verse 3 
B|---------------------------------------------------------------------------|
G|---------------------------------------------------------------------------| We're gonna walk, ooh ooh/
D|--------------7/9--------------7/9--------------7/9--------------7/9-------| We're gonna walk, ooh ooh/
A|---------------------------------------------------------------------------| We're gonna walk, ooh ooh/
E|---------------------------------------------------------------------------| We're gonna walk, ooh ooh 
 
e|---4-7-4-7-4-7-9-4-2---0-2-4-2---0-2-4-2---4-7-4-7-4-7-9-4-2-2-0-----0-2-4-2-| Chorus 
B|-----------------------------------------------------------------2-----------|
G|-----------------------------------------------------------------------------| We walk, we walk, we just 
D|-----------------------------------------------------------------------------| keep walking/We move, we  
A|-----------------------------------------------------------------------------| move, we just keep moving 
E|-----------------------------------------------------------------------------| on 

e|---4-7-4-7-4-7-7-7-12-11-9-7---0-2-4-2---4-7-4-7-4-7-9-4-2-2-0-------------| Chorus 
B|---------------------------------------------------------------2-----------|
G|---------------------------------------------------------------------------| We sing, we sing, we sing at 
D|---------------------------------------------------------------------------| the top of our lungs/ We walk,
A|---------------------------------------------------------------------------| we walk, we walk like
E|---------------------------------------------------------------------------| nothing's wrong 
                                                                              

e|---4-4-4-4-4-4-4-----------------------------------------------------------| Chorus 
B|---------------------------------------------------------------------------| 
G|---------------------------------------------------------------------------| We walk like there's nothing 
D|---------------------------------------------------------------------------| wrong 
A|---------------------------------------------------------------------------|
E|---------------------------------------------------------------------------|

e|---------------------------------------------------------------------------| Final  
B|---------------------------------------------------------------------------| 
G|---------------------------------------------------------------------------| We walk like there's nothing 
D|---9-11-13-11-9---6-9-11-9---9-11-13-11-9---6-9-11-9-----------------------| wrong  
A|---------------------------------------------------------------------------|
E|---------------------------------------------------------------------------|

e|---------------------------------------------------------------------------| Final  
B|---------------------------------------------------------------------------| 
G|---------------------------------------------------------------------------| We walk like there's nothing 
D|---9-11-13-11-9---6-9-11-9---9-11-13-11-9---6-9-11-9-----------------------| wrong 
A|---------------------------------------------------------------------------|
E|---------------------------------------------------------------------------|            
Submit corrections

↑ Back to top | Tablatures and chords for acoustic guitar and electric guitar, ukulele, drums are parodies/interpretations of the original songs. You may use it for private study, scholarship, research or language learning purposes only