Home » E » Echosmith »

Echosmith - Nothings Wrong Bass

Artists:  A B C D E F G H I J K L M N O P Q R S T U V W X Y Z # 

Nothings Wrong Bass

(ver. 1) Click to play this song!
Echosmith
INTRO (0:02-0:10)

G|-----------------------------|-----------------------------|
D|-----------------------------|-----------------------------|
A|-----------------------------|-----------------------------|
E|--0--7/9-11-9\--0--4/7-9-7\--|--0--7/9-11-9\--0--4/7-9-7\--|


VERSE 1 (0:10-0:47)

G|-----------------------------|-----------------------------|
D|-----------------------------|-----------------------------|
A|-----------------------------|-----------------------------|
E|--0--7/9-11-9\--0--4/7-9-7\--|--0--7/9-11-9\--0--4/7-9-7\--|

G|---------------------------|-----------------------------|
D|---------------------11-9--|-----------------------------|
A|---------------------------|-----------------------------|
E|--5--5-5--5-5--5-7-7-------|--0--7/9-11-9\--0--4/7-9-7\--|

G|-----------------------------|-----------------------------|
D|-----------------------------|-----------------------------|
A|-----------------------------|-----------------------------|
E|--0--7/9-11-9\--0--4/7-9-7\--|--0--7/9-11-9\--0--4/7-9-7\--|

G|---------------------------|-----------------------------|
D|---------------------11-9--|-----------------------------|
A|---------------------------|-----------------------------|
E|--5--5-5--5-5--5-7-7-------|--0--7/9-11-9\--0--4/7-9-7\--|

G|---------|----------|
D|---------|----------|
A|---------|----------|
E|--7------|--5/------|


CHORUS (0:47-1:18)

G|------------------------------|--------------------------------|
D|------------------------------|--------------------------------| (Play x2)
A|------------------------------|--------------------------------|
E|--12--12-12--12-12-12-12-12\--|--5--5-5-5-5/17\5--5-5-5-5/17\--|

G|----------------------------|-----------------------------|
D|--2--2-2--2-2-2-2/14-13-12--|-----------------------------|
A|----------------------------|-----------------------------|
E|----------------------------|--5-5-5-5/17\5--5-5-5-5/17\--|

G|-----------------------------|-----------------|
D|-----------------------------|-----------------|
A|-----------------------------|-----------------|
E|--12--12-12--12-12-12-12-12--|--5--5-5--5------|


BRIDGE (1:19-1:27)

G|-----------------------------|-----------------------------|
D|-----------------------------|-----------------------------|
A|-----------------------------|-----------------------------|
E|--0--7/9-11-9\--0--4/7-9-7\--|--0--7/9-11-9\--0--4/7-9-7\--|


VERSE 2 (1:27-1:48)

G|-----------------------------|-----------------------------|
D|-----------------------------|-----------------------------|
A|-----------------------------|-----------------------------|
E|--0--7/9-11-9\--0--4/7-9-7\--|--0--7/9-11-9\--0--4/7-9-7\--|

G|---------------------------|-----------------------------|
D|---------------------11-9--|-----------------------------|
A|---------------------------|-----------------------------|
E|--5--5-5--5-5--5-7-7-------|--0--7/9-11-9\--0--4/7-9-7\--|

G|---------|----------|
D|---------|----------|
A|---------|----------|
E|--7------|--5/------|


CHORUS (1:48-2:19)

G|------------------------------|--------------------------------|
D|------------------------------|--------------------------------| (Play x2)
A|------------------------------|--------------------------------|
E|--12--12-12--12-12-12-12-12\--|--5--5-5-5-5/17\5--5-5-5-5/17\--|

G|----------------------------|-----------------------------|
D|--2--2-2--2-2-2-2/14-13-12--|-----------------------------|
A|----------------------------|-----------------------------|
E|----------------------------|--5-5-5-5/17\5--5-5-5-5/17\--|

G|------------------------------|-------------------|
D|------------------------------|-------------------|
A|------------------------------|-------------------|
E|--12--12-12--12-12-12-12-12\--|--5-5-5-5/17--5----|



BRIDGE (2:20-2:43)

G|------------------------|------------------------|
D|------------------------|------------------------| (Play x2)
A|--7-7-7-7\2--2/7-7-7-7--|--7-7-7-7\2--2/7-7-7-7--|
E|------------------------|------------------------|

G|------------------------|-------------------------|
D|------------------------|-------------------------|
A|--7-7-7-7\2--2/7-7-7-7--|--7-7-7-7\2--2/7-7-7-7\--|
E|------------------------|-------------------------|


CHORUS (2:44-3:14)

G|---------------|-----------------------------|
D|---------------|-----------------------------| 
A|---------------|-----------------------------|
E|--12----5/17\--|--5-5-5-5/17\5--5-5-5-5/17\--|

G|------------------------------|--------------------------------|
D|------------------------------|--------------------------------| 
A|------------------------------|--------------------------------|
E|--12--12-12--12-12-12-12-12\--|--5--5-5-5-5/17\5--5-5-5-5/17\--|

G|----------------------------|-----------------------------|
D|--2--2-2--2-2-2-2/14-13-12--|-----------------------------|
A|----------------------------|-----------------------------|
E|----------------------------|--5-5-5-5/17\5--5-5-5-5/17\--|

G|------------------------------|-------------------|
D|------------------------------|-------------------|
A|------------------------------|-------------------|
E|--12--12-12--12-12-12-12-12\--|--5-5-5-5/17--5----|


ENDING (3:15-3:31)

G|-----------------------------|-----------------------------|
D|-----------------------------|-----------------------------| (Play x2)
A|-----------------------------|-----------------------------|
E|--0--7/9-11-9\--0--4/7-9-7\--|--0--7/9-11-9\--0--4/7-9-7\--|
            
Submit corrections

↑ Back to top | Tablatures and chords for acoustic guitar and electric guitar, ukulele, drums are parodies/interpretations of the original songs. You may use it for private study, scholarship, research or language learning purposes only