Home » E » Echo And The Bunnymen »

Echo And The Bunnymen - Crocodiles Bass

Artists:  A B C D E F G H I J K L M N O P Q R S T U V W X Y Z # 

Crocodiles Bass

(ver. 3) Click to play this song!
Echo And The Bunnymen
ECHO AND THE BUNNYMEN - CROCODILES

This is an absolute belter, Les only uses downstrokes with his pick
but you can alternate if you want, I do because stamina isn't my
best attribute. Plus I suck. Haha!

MAIN RIFF - Play this throughout until the variations.
This is how Les plays it 'cos he's awesome.

G---------------|
D---------2-----|
A--0030--2------|
E------30-------|


MAIN RIFF ALTERNATE - This is an easier way to play the main riff.
Up to you innit.

G---------------|
D---------------|
A--0030---7-----|
E------307------|

VARIATIONS

(0.17), (0.40), (1.28)
G-----------------------------------|
D-----------------------------------|
A-----------------------------------|
E-3335-5503335-5503335-55033333333--|

(0.46)
G-----------------|
D-----------------|
A-----------------|
E-0--0--0-3--2--3-| x4

(0.59)
G-----------------------------------|
D-----------------------------------|
A-----------------------------------|
E-5-55-5505-55-5505-55-5505-55-550--|

G-----------------------------------|
D-----------------------------------|
A-----------------------------------|
E-5-55-5505-55-5505-55-5505-5-------|

(2.21)
G--------------------------------------------|
D--------------------------------------------|
A--------------------------------------------|
E-3335-5503335-5503335-55033333333333333335--| End.
            
Submit corrections

↑ Back to top | Tablatures and chords for acoustic guitar and electric guitar, ukulele, drums are parodies/interpretations of the original songs. You may use it for private study, scholarship, research or language learning purposes only