Home » E » Echo And The Bunnymen »

Echo And The Bunnymen - Rescue Bass

Artists:  A B C D E F G H I J K L M N O P Q R S T U V W X Y Z # 

Rescue Bass

(ver. 1) Click to play this song!
Echo And The Bunnymen
-------------------------------------------------------------------------------
			     RESCUE- Echo And The Bunnymen
-------------------------------------------------------------------------------


Tuning: G D A E

Intro

G|------------------------------------------------------------------------|
D|---5--6-----------------------------------------------------------------|
A|-----------------------------------5p4h5--------------------------------|
E|--3--4---5-5--0--3-3--0--5-5--0--3-------5-5--0--3-3--0--5-5--0--3-3-3-3|

Verse 1:

G|---------------------------------------------------------------------|
D|---------------------------------------------------------------------| 
A|---------------------------------------------------------------------| 
E|--5-5--0--3-3--0--5-5--0--3-3-3-3--0--5-5--0--3-3--0--5-5--0--3-3-3-3| 
                                                                         
G|--------------------------------------|
D|--------------------------------------|
A|-----------------------------5p4h5----|
E|--5-5--0--3-3--0--5-5--0--3-----------|

G|---------------------------------------------------------------------|
D|---------------------------------------------------------------------| 
A|---------------------------------------------------------------------| 
E|--5-5--0--3-3--0--5-5--0--3-3-3-3--0--5-5--0--3-3--0--5-5--0--3-3-3-3|

G|--------------------------------------|
D|---------------------------5--6-------|
A|--------------------------------------|
E|--5-5--0--3-3--0--5-5--0--3--4--------|

G|---------------------------------------------------------------------|\
D|---------------------------------------------------------------------| |x3 
A|----------------------------5p4h5------------------------------------| |
E|--5-5--0--3-3--0--5-5--0--3--------5-5--0--3-3--0--5-5--0--3-3-3-3---|/

G|------------------------------------|
D|------------------------------------|
A|------------------------------------|
E|--5-5--0--3-3--0--5-5--0--3-3-3-3--0|

Chorus 1:

G|--------------------------------------|
D|----7-7------5-5----------------------| 
A|-5--------3--------7------------------| 
E|-----------------------5-5---3--3-3---|

G|--------------------------------------|
D|----7-7------5-5----------------------| 
A|-5--------3--------7------------------| 
E|-----------------------5-5---3--------|

Bridge 1:

G|------------------------------------------------------------------|
D|-------------------------------------------------------------5--6-|
A|-----------------------------5p4h5--------------------------------|
E|--5-5--0--3-3--0--5-5--0--3---------5-5--0--3-3--0--5-5--0--3--4--|

Verse 2:

G|----------------------------------------------------------------------|
D|----------------------------------------------------------------------|
A|----------------------------------------------------------------5p4h5-|
E|--5-5--0--3-3--0--5-5--0--3-3-3-3--0--5-5--0--3-3--0--5-5--0--3-------|

G|---------------------------------------------------------------------|
D|---------------------------------------------------------------------|
A|---------------------------------------------------------------------|
E|--5-5--0--3-3--0--5-5--0--3-3-3-3--0--5-5--0--3-3--0--5-5--0--3-3-3-3| 
                                                                         
G|--------------------------------------|                                
D|---------------------------5--6-------|                                
A|--------------------------------------|                                
E|--5-5--0--3-3--0--5-5--0--3--4--------|    

G|---------------------------------------------------------------------|\
D|---------------------------------------------------------------------| |x2 
A|----------------------------5p4h5------------------------------------| |
E|--5-5--0--3-3--0--5-5--0--3-------0--5-5--0--3-3--0--5-5--0--3-3-3-3-|/

G|------------------------------------|
D|------------------------------------|
A|------------------------------------|
E|--5-5--0--3-3--0--5-5--0--3-3-3-3--0|

Chorus 2:

G|--------------------------------------|
D|----7-7------5-5----------------------| 
A|-5--------3--------7------------------| 
E|-----------------------5-5---3--3-3---|

G|--------------------------------------|
D|----7-7------5-5----------------------| 
A|-5--------3--------7-------------5b---| 
E|-----------------------5-5---3--------|

Break:

G|----------------|\
D|----------------| |x8
A|---7-6-5--5-5-5-| |
E|-5--------------|/

G|-------------------------------------------------------------------------|
D|-------------------------------------------------------------------------|
A|-------------------------------------------------------------------------|
E|-0--3-3-3-3-3-3-3-3-3-3-3-3-3-3-3-3-3-3-3-3-3-3-3-3-3-3-3-3-3-3-3-3-3--0-|

Bridge 2:

G|--------------------------------------------------------------------------|
D|--------------------------------------------------------------------------|
A|--------------------------------------------------------------------------|
E|-5-5--0--3-3--0--5-5--0--3-0----5-5--0--3-3--0--5-5--0--3-0---------------|

Verse 3:
G|---------------------------------------------------------------------| 
D|---------------------------------------------------------------------| 
A|-----------------------------5p4h5-----------------------------5p4h5-|
E|--5-5--0--3-3--0--5-5--0--3---------5-5--0--3-3--0--5-5--0--3--------| 

G|-----------------------------------------------------------------------|
D|-----------------------------------------------------------------------|
A|-----------------------------------------------------------------5p4h5-|
E|--5-5--0--3-3--0--5-5--0--3-3-3-3--0--5-5--0--3-3--0--5-5--0--3--------|

G|---------------------------------------------------------------------| 
D|---------------------------------------------------------------------| 
A|-----------------------------5p4h5-----------------------------5p4h5-|
E|--5-5--0--3-3--0--5-5--0--3---------5-5--0--3-3--0--5-5--0--3--------|

G|---------------------------------------------------------------------|\
D|-------------------------------------------------------------5--6----| |x2
A|-----------------------------5p4h5-----------------------------------| |
E|--5-5--0--3-3--0--5-5--0--3---------5-5--0--3-3--0--5-5--0--3--4-----|/

G|---------------------------------------------------------------------|
D|-----------5--6------------5--6------------5--6------------5--6------|
A|---------------------------------------------------------------------|
E|--5-5--0--3--5----5-5--0--3--4----5-5--0--3--4----5-5--0--3--4-------|

Chorus 3:


G|--------------------------------------|\
D|----7-7------5-5----------------------| |
A|-5--------3--------7------------------| |
E|-----------------------5-5---3--3-3---| |
                                          > Repeat several times until fade.
G|--------------------------------------| |
D|----7-7------5-5----------------------| | 
A|-5--------3--------7-------------5b---| |
E|-----------------------5-5---3--------|/


| /  slide up
| \  slide down
| h  hammer-on
| p  pull-off
| ~  vibrato
| +  harmonic
| x  Mute note
| b  Bend
===============================================================================R
            
Submit corrections

↑ Back to top | Tablatures and chords for acoustic guitar and electric guitar, ukulele, drums are parodies/interpretations of the original songs. You may use it for private study, scholarship, research or language learning purposes only