» » »

Echo And The Bunnymen - Back Of Love Bass

Artists:  A B C D E F G H I J K L M N O P Q R S T U V W X Y Z # 

Back Of Love Bass

(ver. 1) Click to play this song!
Echo And The Bunnymen
 Rating:
4/5 (4 votes)


 Back Of Love lessons Tabs too difficult? Try these video lessons and learn fast
 
                G---------------------------------------------------------
D---------------------------------------------------------
A-5-3---3-5-3---3-----------------------------------------verse
E------5-------5------------------------------------------


"when you say it's love..."
G---------------------------------------------------------
D---------------------------------------------------------
A---------------------------------------------------------x4
E-10----5-------------------------------------------------


"we're taking advantage of..."
G---------------------------------------------------------
D---------------------------------------------------------
A-5--3---0h5--3-------------------------------------------x 8
E---------------------------------------------------------


"taking advantage of" (notes approximate, play fast)
G-77777777-99999999-1111111111-12122121212-1414144144141414
D----------------------------------------------------------
A----------------------------------------------------------x2
E----------------------------------------------------------


G----------------------------------------------------------
D----------------------------------------------------------
A----------777777777-55555555----------77777777-55555555---
E-55555555--------------------55555555---------------------


"when you're surrounded by..."
G---------------------------------------------------------
D---------------------------------------------------------
A-55555555/77777777/2222222222222222----------------------x4
E---------------------------------------------------------


"what were you thinking of"
seems just ringing out the low open "e"


"we're taking advantage of..."
G---------------------------------------------------------
D---------------------------------------------------------
A-55555555-77777777-99999999-101010101010-1221212121212---
E---------------------------------------------------------


G---------------------------------------------------------
D---------------------------------------------------------
A---------------------------------------------------------
E-33333333/7777777/5--------------------------------------
            
Submit corrections



        Back Of Love lessons Hard to play? Try these video lessons and learn fast Back Of Love lessons
        
↑ Back to top | Tablatures and chords for acoustic guitar and electric guitar, ukulele, drums are parodies/interpretations of the original songs. You may use it for private study, scholarship, research or language learning purposes only