Home » E » Easton Corbin »

Easton Corbin - Roll With It Tabs

Artists:  A B C D E F G H I J K L M N O P Q R S T U V W X Y Z # 

Roll With It Tabs

(ver. 2) Click to play this song!
Easton Corbin
this is just what i figured out as the lead/intro for this song... 
its pretty simple you can play it with the double stops, or with just the single notes... 
whatever you like best.. 

|-----------------------------------------------------------------------------------------------|     
|------------------------------------------------------------------------------------------------------
|--------------------5-5---------55-------------------3/5/3----------5-5---5/7----5-------------------
|------------3--2h3--3-3-------3-33----3h5--3------3--3/5/3-------3--5-5---5/7------7p5/3-------|      
|--3---3h5---------------3h5--------3----------3h5-----------3-3h5-------3----------------------------
|-----------------------------------------------------------------------------------------------|

|------------------------------------------------------------------------------------------------------
|------------------------------------------------------------------------------------------------------
|--------------------5-5---------55-------------------3/5/3----------5-5---5/7----5--------------------
|---------------2h3--3-3-------3-33----3h5--3------3--3/5/3-------3--5-5---5/7------7p5p0h2h3--|       
|------------------------3h5--------3----------3h5------------3-3h5-------3---------------------------
|-----------------------------------------------------------------------------------------------|

enjoy!

russell
            
Submit corrections

↑ Back to top | Tablatures and chords for acoustic guitar and electric guitar, ukulele, drums are parodies/interpretations of the original songs. You may use it for private study, scholarship, research or language learning purposes only