» » »

Earshot - Rotten Inside Tabs

Artists:  A B C D E F G H I J K L M N O P Q R S T U V W X Y Z # 

Rotten Inside Tabs

(ver. 2) Click to play this song!
Earshot
 Rating:
4/5 (4 votes)
    Rotten Inside lessons Tabs too difficult? Try these video lessons and learn fast
                Tuning - Drop C#/Drop Db

Alright this is my first tab so yea, i decided to make a tab of this song since there 
isnt a real tab of this song

NOTE:This tab does not follow the original song speed, so figure out the tempo on your own.

Intro
Eb|-------------------------------------------------------------------------|
Bb|-------------------------------------------------------------------------|
Gb|-------------------------------------------------------------------------|
Db|-7~~~~7h8-7-0-7~~~~~1~~~-------------------------------------------------|
Ab|-7~~~~7h8-7-0-7~~~~~1~~~-------------------------------------------------|
Db|-7~~~~7h8-7-0-7~~~~~1~~~-------------------------------------------------|   Repeat 2 Times

Verse Lead

Eb|-------------------------------------------------------------------------|
Bb|-----------0--0----------------------------------------------------------|
Gb|---5---5-----------------------------------------------------------------|
Db|-7---7----7--7-----------------------------------------------------------|
Ab|-------------------------------------------------------------------------|
Db|-------------------------------------------------------------------------|


Verse Rhythm 
  PM-------------------------------------------------------------------------|
Eb|------------------------------------------------------------------------|
Bb|------------------------------------------------------------------------|
Gb|------------------------------------------------------------------------|
Db|-77xxxxxxxx77xxxxxxxx77xxxxxxxx77---------------------------------------|
Ab|-77xxxxxxxx77xxxxxxxx77xxxxxxxx77---------------------------------------|
Db|-77xxxxxxxx77xxxxxxxx77xxxxxxxx77---------------------------------------|

Note:To get this to sound like the song, palm mute the chord while not letting alot 
down, let your finger rest on the fret, almost like a harmonic, this works for me.

Prechorus                            PM----
Eb|--------------------------------|----------------------------------------|
Bb|--------------------------------|----------------------------------------|
Gb|-9~~~5~~~7~~5-------------------|----------------------------------------|
Db|-x~~~x~~~x~~x-------------------|----000---------------------------------|
Ab|-7~~~3~~~5~~3-------------------|----000---------------------------------|
Db|--------------------------------|----000---------------------------------|
Repeat 2 Times                       On last time before Chorus

Chorus
Eb|------------------|------------------------------------------------------|
Bb|------------------|------------------------------------------------------|
Gb|------------------|------------------------------------------------------|
Db|-7---10---0---3---|-7---10---0---3---------------------------------------|
Ab|-7---10---0---3---|-7---10---0---3---------------------------------------|
Db|-7---10---0---3---|-7---10---0---3---------------------------------------|
Repeat Chorus 4 times

Interlude
Eb|-----------------|-------------------------------------------------------|
Bb|-----------------|-------------------------------------------------------|
Gb|-----------------|-------------------------------------------------------|
Db|-7---5---3--0----|--33---00----------------------------------------------|
Ab|-7---5---3--0----|--33---00----------------------------------------------|
Db|-7---5---3--0----|--33---00----------------------------------------------|
Repeat 4 times         On last 2 chords of interlude it is


And thats basically it heres the song layout

Intro
Verse
Prechorus
Chorus
Intro Riff
Verse
Prechorus
Chorus
Interlude
Chorus
Intro Riff
            
Submit corrections

↑ Back to top | Tablatures and chords for acoustic guitar and electric guitar, ukulele, drums are parodies/interpretations of the original songs. You may use it for private study, scholarship, research or language learning purposes only