» » »

Dying Fetus - Vengeance Unleashed Tabs

Artists:  A B C D E F G H I J K L M N O P Q R S T U V W X Y Z # 

Vengeance Unleashed Tabs

(ver. 1) Click to play this song!
Dying Fetus
 Rating:
4/5 (4 votes)

 Vengeance Unleashed lessons Tabs too difficult? Try these video lessons and learn fast
 
                Dying Fetus
"vengeance Unleashed"

. = palm mute
p = pull off
h = hammer on
* = harmonic
b = bend
~ = vibrato
/ = slide
x = muted string
t = tap

tuning: Db Gb B E Ab Db

riff 1:
|-----------------------------------------|
|-----------------------------------------|
|-----------------------------------------|
|-4-4-----4-4-----------------------------|
|-----------------------------------------|
|-----2-2-----2-2-4-4-5-5-1-1-1-1-1-1-1-1-|
 |___________tremolo picking_____________|

|-----------------------------------------|
|-----------------------------------------|
|-----------------------------------------|
|-4-4-----4-4-----------------------------|
|-----------------------------------------|
|-----2-2-----2-2-4-4-5-5-5-5-5-5-5-5-1-1-|
 |___________tremolo picking_____________|

|-----------------------------------------------------------------|
|-----------------------------------------------------------------|
|-----------------------------------------------------------------|
|-4-4-----4-4-----------------------------------------------------|
|-----------------------------------------4--3--4--7--7--6--4--3--|
|-----2-2-----2-2-4-4-5-5-1-1-1-1-1-1-1-1-2--1--2--4--5--4--2--1--|
 |___________tremolo picking_____________|.  .  .  .  .  .  .  .

|-----------------------------------------|
|-----------------------------------------|
|-----------------------------------------|
|-4-4-----4-4-----------------------------|
|-----------------------------------------|
|-----2-2-----2-2-4-4-5-5-1-1-1-1-1-1-1-1-|
 |___________tremolo picking_____________|

|-----------------------------------------|
|-----------------------------------------|
|-----------------------------------------|
|-4-4-----4-4-----------------------------|
|-----------------------------------------|
|-----2-2-----2-2-4-4-5-5-5-5-5-5-5-5-1-1-|
 |___________tremolo picking_____________|

|--------------------------------------------|
|--------------------------------------------|
|--------------------------------------------|
|-4-4-----4-4--------------------------------|
|-----------------------------------------4--|
|-----2-2-----2-2-4-4-5-5-1-1-1-1-1-1-1-1-2--|
 |___________tremolo picking_____________|

riff 2:
|-----------------------------------|
|-----------------------------------|
|-----------------------------------|
|-----------------------------------|
|-4---6-7-3---4---5-7---4---6-7-3---|
|-2---4-5-1---2---4-5---2---4-5-1---|
                                 

|---------------------------------|
|---------------------------------|
|---------------------------------|
|-4-4-2-2---------2-2-------------|
|---------5-5-4-4-----5-5-4-4-----|
|-----------------------------1-1-|
 |________tremolo picking________|

riff 3:
|---------------------------------------------------------|
|---------------------------------------------------------|
|---------------------------------------------------------|
|---------------------------------------------------------|
|-------------------2h3h5---------------------------------|
|-0-0-0-0-0-0-0-0-0-------1-1-1-1-1-1-1-1-2-2-2-2-3-3-3-3-|
 |_tremolo picking_|     |________tremolo picking________|

|---------------------------------|
|---------------------------------|
|-------------5-8-4-7-------------|
|---------5-8---------5-8---------|
|-----5-8-----------------5-8-----|
|-4-7-------------------------4-7-|
  . . . . . . . . . . . . . . . .

|---------------------------------------------------------|
|---------------------------------------------------------|
|---------------------------------------------------------|
|---------------------------------------------------------|
|-------------------2h3h5---------------------------------|
|-0-0-0-0-0-0-0-0-0-------1-1-1-1-1-1-1-1-2-2-2-2-3-3-3-3-|
 |_tremolo picking_|     |________tremolo picking________|

|-12-13-16-13-12-------------------------------------------------------------------------------|
|----------------15-13-12-------------------12-13-16-13-12-------------------------------------|
|-------------------------15-13-12-------------------------15-13-12----------------------------|
-|---------------------------------15-13-12-------------------------15-13-12-------------------|
|----------------------------------------------------------------------------15-13-12--------|
|-------------------------------------------------------------------------------------15-13-12-|
  
|---------------------------------------------------------|
|---------------------------------------------------------|
|---------------------------------------------------------|
|---------------------------------------------------------|
|-------------------2h3h5---------------------------------|
|-0-0-0-0-0-0-0-0-0-------1-1-1-1-1-1-1-1-2-2-2-2-3-3-3-3-|
 |_tremolo picking_|     |________tremolo picking________|

|--------5-7-8--------7-9-10--------9-11-12--------11-13-14-|
|-----------------------------------------------------------|
|-----------------------------------------------------------|
|-7-9-10-------7-9-10--------7-9-10---------7-9-10----------|
|-----------------------------------------------------------|
|-----------------------------------------------------------|

|---------------------------------------------------------|
|---------------------------------------------------------|
|---------------------------------------------------------|
|---------------------------------------------------------|
|-------------------2h3h5---------------------------------|
|-0-0-0-0-0-0-0-0-0-------1-1-1-1-1-1-1-1-2-2-2-2-3-3-3-3-|
 |_tremolo picking_|     |________tremolo picking________|

|-------------------|
|-------------------|
|-------------------|
|-------------------|
|-4--3--4--6--7-----|
|-2--1--2--4--5-----|
  .  .  .  .

riff 4:
|-------------------------------------------------------------------|
|-------------------------------------------------------------------|
|-------------------------------------------------------------------|
|-------------------------------------------------------------------|
|-------------------------------------------------------------------|
|-2-2-2-2-2-2-2-2-2-2-2-2-2-2-4-4-5-5-1-1-1-1-1-1-1-1-1-1-1-1-1-1-1-|
  . . . . . . . . . . . . . . . . . . . . . . . . . . . . . . . . .
 |_________________________tremolo picking_________________________|

|---------------------------------------------|
|---------------------------------------------|
|---------------------------------------------|
|---------------------------------------------|
|---------------------------------------------|
|-2-2-2-2-2-2-2-2-2-2-2-2-2-2-4-4-5-5-5-5-5-5-|
  . . . . . . . . . . . . . . . . . . . . . . 
 |_____________tremolo picking_______________|

|-------------------------------------------------------------------|
|-------------------------------------------------------------------|
|-------------------------------------------------------------------|
|-------------------------------------------------------------------|
|-------------------------------------------------------------------|
|-2-2-2-2-2-2-2-2-2-2-2-2-2-2-4-4-5-5-1-1-1-1-1-1-1-1-1-1-1-1-1-1-1-|
  . . . . . . . . . . . . . . . . . . . . . . . . . . . . . . . . . 
 |________________________tremolo picking__________________________|

|---------------------------------|
|---------------------------------|
|---------------------------------|
|-4-4-2-2---------2-2-------------|
|---------5-5-4-4-----5-5-4-4-----|
|-----------------------------1-1-|
 |________tremolo picking________|

|---------------------------------------------------------|
|---------------------------------------------------------|
|---------------------------------------------------------|
|---------------------------------------------------------|
|-4-4-4-4-4-4-4-4-6-6-7-7-3-3-3-3-3-3-3-3-4-4-4-4-4-4-4-4-|
|-2-2-2-2-2-2-2-2-4-4-5-5-1-1-1-1-1-1-1-1-2-2-2-2-2-2-2-2-|
  . . . . . . . . . . . . . . . . . . . . . . . . . . . .  

|-------------------------------------------------------------|
|-------------------------------------------------------------|
|-------------------------------------------------------------|
|-------------------------------------------------------------|
|-6-6-7-7-7-7-7-7-7-7-4-4-4-4-4-4-4-4-6-6-7-7-3-3-3-3-3-3-3-3-|
|-4-4-5-5-5-5-5-5-5-5-2-2-2-2-2-2-2-2-4-4-5-5-1-1-1-1-1-1-1-1-|
  . . . . . . . . . . . . . . . . . . . . . . . . . . . . . . 

|-----------------------------|
|-----------------------------|
|-----------------------------|
|-4--2--------2---------------|
|-------5--4-----5--4---------|
|----------------------3*b~---|
  .  .  .  .  .  .  .

riff 5:
|---------------------------------------------|
|---------------------------------------------|
|---------------------------------------------|
|---------------------------------------------|
|-4----------4----------4----------4----------|
|-2----------2----------2----------2----------|

riff 6:
|------------------------------------------------------------------|
|------------------------------------------------------------------|
|------------------------------------------------------------------|
|------------------------------------------------------------------|
|-4---4-------3/4-4---4---5--3--5--4---4-------3/7-6-----7-6---5/7-|
|-2---2---0-0-1/2-2---2---3--1--3--2---2---0-0-1/5-4---0-5-4---3/5-|
                          .  .  .                     

riff 7:
|-------------------------------------|
|-------------------------------------|
|--------------------------------3*b--|
|-------------------------------------|
|-4-3-2-3-6-3-2-3-4-3-2-3-6-3-2-------|
|-2-1-0-1-4-1-0-1-2-1-0-1-4-1-0-------|
  .  .  .  .  .  .  .

riff 8:
|-------------------------------------------------|
|-------------------------------------------------|
|-------------------------------------------------|
|-------------------------------------------------|
|-4-3-2-3-6-3-2-3-4-3-2-3-6-3-2-3-4-----4-4-6-7-3-|
|-2-1-0-1-4-1-0-1-2-1-0-1-4-1-0-1-2-----2-2-4-5-1-|
  .  .  .  .  .  .  .                   . . . .

riff 9:
|-----------------------------------------------------------------|
|-----------------------------------------------------------------|
|-----6-6-7-7-6-6-----6-6-4-4---------4-4-------------------------|
|-4-4-------------7-7---------7-7-6-6-----7-7-6-6-7-7-6-6-4-4-3-3-|
|-----------------------------------------------------------------|
|-----------------------------------------------------------------|
 |_______________________tremolo picking_________________________|

|-----------------------------------------------------------------|
|-----------------------------------------------------------------|
|-----6-6-7-7-6-6-----6-6-4-4-----4-4-4-4-6-6-7-7-6-6-6-----------|
|-4-4-------------7-7---------7-7-------------------------7-7-6-6-|
|-----------------------------------------------------------------|
|-----------------------------------------------------------------|
 |_______________________tremolo picking_________________________|

riff 10:
|---------------------------------------------------------------------------------|
|---------------------------------------------------------------------------------|
|---------------------------------------------------------------------------------|
|---------------------------------------------------------------------------------|
|------4-4--5-5--4-4-------4-4--2-2------------2-2--------------------------------|
|-2-2-----------------5-5------------5-5--4-4-------5-5--4-4--5-5--4-4--2-2--1-1--|
  . .  . .  . .  . .  . .  . .  . .  . .  . .  . .  . .  . .  . .  . .  . .  . .
   
|-------------------------------------------------------------------------|
|-------------------------------------------------------------------------|
|-------------------------------------------------------------------------|
|-------------------------------------------------------------------------|
|------4-4--5-5--4-4-------4-4--2-2-------2-2-2-2-4-4-5-5-4-4-4-4---------|
|-2-2-----------------5-5------------5-5--------------------------5-5-4-4-|
  . .  . .  . .  . .  . .  . .  . .  . . |________tremolo picking________|

riff 11:
|-------------------------------------------------------------------|
|-------------------------------------------------------------------|
|-------------------------------------------------------------------|
|-------------------3/6-----3/7-------------------------------------|
|-------------------x-------x-------4-3-2-3-6-3-2-3-4-3-2-3-6-3-2-3-|
|--2-2-2-2-2-2-2-2--1/4-----1/5-----2-1-0-1-4-1-0-1-2-1-0-1-4-1-0-1-|
 |_tremolo picking_|                . . . . . . . . . . . . . . . . 

riff 12:
|-----------------------------------|
|-----------------------------------|
|-----------------------------------|
|-------------------3/6-----3/7-----|
|-------------------x-------x-------|
|--2-2-2-2-2-2-2-2--1/4-----1/5-----|
 |_tremolo picking_|                

outro:
|-------------------------------------------------------------|
|-------------------------------------------------------------|
|-------------------------------------------------------------|
|-------------------------------------------------------------|
|-2-2--2-2--2-2--3-3--2-2--2-2--3-3--6-6--3-3--4-4--3-3--4-4--|
|-0-0--0-0--0-0--1-1--0-0--0-0--1-1--4-4--1-1--2-2--1-1--2-2--|
  . .  . .  . .  . .  . .  . .  . .  . .  . .  . .  . .  . .

|------------------------------|
|------------------------------|
|------------------------------|
|------------------------------|
|-2-2--2-2--2-2--3-3--2-2--2-2-|
|-0-0--0-0--0-0--1-1--0-0--0-0-| 
  . .  . .  . .  . .  . .  . .  

|-------------------------------------------------|
|-------------------------------------------------|
|-t11p7p4-----------------------------------------|
|---------t11p7p4---------t11p7p4-----------------|
|-----------------t11p7p4---------t11p7p4---------|
|-----------------------------------------t11p7p4-|
            
Submit corrections


        Vengeance Unleashed lessons Hard to play? Try these video lessons and learn fast Vengeance Unleashed lessons
        
↑ Back to top | Tablatures and chords for acoustic guitar and electric guitar, ukulele, drums are parodies/interpretations of the original songs. You may use it for private study, scholarship, research or language learning purposes only