Home » D » Dying Fetus »

Dying Fetus - Grotesque Impalement Bass

Artists:  A B C D E F G H I J K L M N O P Q R S T U V W X Y Z # 

Grotesque Impalement Bass

(ver. 3) Click to play this song!
Dying Fetus
 Rating:
4/5 (4 votes)
                This song is not easy because there's a lot to memorize but if listen to it you will get
down. All of this was done by ear and this is how it sounds best to me also the original 
is in C# tuning but I don't bother with that sort of thing so I did it in standard.


Riff A

G|--(X3)---|-----(X1)------|
D|6--------|---------------|
A|--4-5-4--|8-8-8-8-9-9-9-9|
E|---------|---------------|

Riff B                       B1
                                          T      T      T       T
G|--------------------------|-------------13-6h9-13-6h9-14-7h10-14-7h10-|
D|--------------------------|-------------------------------------------|
A|4-4-4--4-4--4-4-4--4-4-5-5|4-4-4--4-4-4-------------------------------|
E|--------------------------|-------------------------------------------|

Riff B2

  T      T      T       T       T      T      T      T
G|13-6h9-13-6h9-14-7h10-14-7h10-13-6h9-13-6h9-12-5h8-12-5h8------|
D|---------------------------------------------------------------|
A|---------------------------------------------------------------|
E|---------------------------------------------------------------|

Riff B3

  T      T      T       T       T      T      T       T
G|13-6h9-13-6h9-14-7h10-14-7h10-13-6h9-13-6h9-16-9h12-16-9h12-|
D|------------------------------------------------------------|
A|------------------------------------------------------------|
E|------------------------------------------------------------|

Riff C

G|--|----------------|-------|
D|--|----------------|-------|
A|--|------5--------4|-------|
E|0-|--1-0------1-0--|0-1-0-1|

Riff D

G|-------------------------------------------------------------|
D|-------------------------------------------------------------|
A|5-5-5-5-5-5-5-5-5-5-5--5-8-5-7-4-4-4-4-4-4-4-4-4-4-4--4-8-4-7|
E|-------------------------------------------------------------|

Riff E

G|---------------|--------|
D|---------------|--------|
A|4-4-4-4-4-4-4-4|--------|
E|---------------|-0-1-0-1|

Riff F

G|-------------|--------------------|
D|-------------|----------------6-6-|
A|7--8----7----|--------5-5-4-4-----|
E|-----10---9--|5-5-4-4-------------|

Riff G

G|------------|--------------------------------|
D|------------|--------------------------------|
A|------9-6-7-|------------9-9-6-6-6-6-7-7-7-7-|
E|9-7-6-------|9-9-7-7-6-6---------------------|

Riff H

G|---------------|
D|---------------|
A|4-4-4-4-5-5-5-5|
E|---------------|

Riff I

G|--------------------------|-----------------|
D|--------------------------|------------6-5--|
A|7-6-4-7-6--4-4-4-4-4-4-4-4|7-6-4-7-6-4------|
E|--------------------------|-----------------|

Riff J

G|----------------|---------|-------|---------------------|
D|----------------|---------|-------|---------------------|
A|7-6-5-4-7-6-5-4-|7-4--8-7-|7-6-5-4|7-6-5-4-4-4-4-4-4-4-4|
E|----------------|---------|-------|---------------------|

Riff K

G|-----------------|---------------------------------|
D|--7-6------6-----|----7-7-6-6---------6-6----------|
A|------7-6----6-5-|------------7-7-6-6-----6-6-5-5--|
E|9----------------|9-9------------------------------|

Riff L

G|--------------------------------|
D|--------6-----------------------|
A|4-4-4-4-----4-6-4-7--4-6-7-6-5--|
E|--------------------------------|
            
Submit corrections

↑ Back to top | Tablatures and chords for acoustic guitar and electric guitar, ukulele, drums are parodies/interpretations of the original songs. You may use it for private study, scholarship, research or language learning purposes only