» » »

Dropkick Murphys - The Lonesome Boatman Tabs

Artists:  A B C D E F G H I J K L M N O P Q R S T U V W X Y Z # 

The Lonesome Boatman Tabs

(ver. 1) Click to play this song!
Dropkick Murphys
 Rating:
4.3/5 (10 votes)


 The Lonesome Boatman  lessons Tabs too difficult? Try these video lessons and learn fast
 
                [Intro]

e|---------------|-----------------|---------------------|-----------------|
B|---------------|-----------------|---------------------|-----------------|
G|---------------|-----------------|---------------------|-----------------|
D|---------------|-----------------|---------------------|-----------------|
A|---------------|-----------------|---------------------|-----------------|
E|-/7------------|-----------------|-7/10----------------|-10\2------------|

e|----------------|-----------------|---------------------|-----------------|
B|----------------|-----------------|---------------------|-----------------|
G|----------------|-----------------|---------------------|-----------------|
D|----------------|-----------------|---------------------|-----------------|
A|----------------|-----------------|---------------------|-----------------|
E|-2/7------------|-----------------|-7/10----------------|-10\2------------|

e|----------------|-----------------|--------------------|---------------|
B|----------------|-----------------|--------------------|---------------|
G|----------------|-----------------|--------------------|---------------|
D|----------------|-----------------|--------------------|---------------|
A|----------------|-----------------|--------------------|---------------|
E|-2/7------------|-----------------|-0------------------|---------------|

e|--------------|-----------------|--------------------|---------------|
B|--------------|-----------------|--------------------|---------------|
G|--------------|-----------------|--------------------|---------------|
D|--------------|-----------------|--------------------|---------------|
A|--------------|-----------------|--------------------|---------------|
E|-7------------|-----------------|-0------------------|---------------|

e|--------------|-----------------|--------------------|------------------|
B|--------------|-----------------|--------------------|------------------|
G|--------------|-----------------|--------------------|------------------|
D|--------------|-----------------|--------------------|------------------|
A|--------------|-----------------|-5------------------|-5\---------------|
E|-7------------|-----------------|--------------------|---2--------------|

e|----------------|-----------------|-----------------|
B|----------------|-----------------|-----------------|
G|----------------|-----------------|-----------------|
D|----------------|-----------------|-----------------|
A|----------------|-----------------|-----------------|
E|-2/7------------|-----------------|-----------------|

e|----------------|-----------------|-----------------|--------------|
B|----------------|-----------------|-----------------|--------------|
G|----------------|-----------------|-----------------|--------------|
D|---4------------|-----------------|-/7--------------|--------------|
A|-0h2------------|-----------------|-/5--------------|-4------------|
E|----------------|-----------------|-----------------|-2------------|

e|----------------|-----------------|-----------------|--------------|
B|----------------|-----------------|-----------------|--------------|
G|----------------|-----------------|-----------------|--------------|
D|---4------------|-----------------|-/7--------------|--------------|
A|-0h2------------|-----------------|-/5--------------|-4------------|
E|----------------|-----------------|-----------------|-2------------|

  p.m................................
e|-----------------|-----------------|
B|-----------------|-----------------|
G|-4-4-4-4-4-4-4-4-|-4-4-4-4-4-4-4-4-|
D|-4-4-4-4-4-4-4-4-|-4-4-4-4-4-4-4-4-|
A|-2-2-2-2-2-2-2-2-|-2-2-2-2-2-2-2-2-|
E|-----------------|-----------------|

[Verse]

e|-----------------|-----------------|-----------------|-----------------|
B|-----------------|-----------------|-----------------|-----------------|
G|-4-4-4-4-4-4-4-4-|-4-4-4-4-4-4-4-4-|-7-7-7-7-7-7-7-7-|-----------------|
D|-4-4-4-4-4-4-4-4-|-4-4-4-4-4-4-4-4-|-7-7-7-7-7-7-7-7-|-4-4-4-4-4-4-4-4-|
A|-2-2-2-2-2-2-2-2-|-2-2-2-2-2-2-2-2-|-5-5-5-5-5-5-5-5-|-4-4-4-4-4-4-4-4-|
E|-----------------|-----------------|-----------------|-2-2-2-2-2-2-2-2-|

e|-----------------|-----------------|-----------------|-----------------|
B|-----------------|-----------------|-----------------|-----------------|
G|-4-4-4-4-4-4-4-4-|-4-4-4-4-4-4-4-4-|-----------------|-----------------|
D|-4-4-4-4-4-4-4-4-|-4-4-4-4-4-4-4-4-|-7-7-7-7-7-7-7-7-|-4-4-4-4-4-4-4-4-|
A|-2-2-2-2-2-2-2-2-|-2-2-2-2-2-2-2-2-|-5-5-5-5-5-5-5-5-|-4-4-4-4-4-4-4-4-|
E|-----------------|-----------------|-----------------|-2-2-2-2-2-2-2-2-|

e|-----------------|-----------------|
B|-----------------|-----------------|
G|-4-4-4---4-4-4-4-|---4-4-4---4-----|
D|-4-4-4---4-4-4-4-|---4-4-4---4-----|
A|-2-2-2-0h2-2-2-2-|-0h2-2-2-0h2-----|
E|-----------------|-----------------|

[Bridge]

e|-------0------|-------0------|-------2------|---------2------|
B|-------0------|-------0------|-------3------|---------3------|
G|-------1------|-------1------|-4-----4------|---4-----4------|
D|-2------------|-2------------|-4------------|---4------------|
A|-2------------|-2------------|-2------------|-0h2------------|
E|-0------------|-0------------|--------------|----------------|

e|-------0------|-------0------|-------2------|---------2------|
B|-------0------|-------0------|-------3------|---------3------|
G|-------1------|-------1------|-4-----4------|---4-----4------|
D|-2------------|-2------------|-4------------|---4------------|
A|-2------------|-2------------|-2------------|-0h2------------|
E|-0------------|-0------------|--------------|----------------|

e|-2-2-2-2-2-2-2-2-|-----------------|-----------------|-----------------|
B|-3-3-3-3-3-3-3-3-|-----------------|-----------------|-----------------|
G|-2-2-2-2-2-2-2-2-|-----------------|-4-4-4---4-4-4-4-|---4-4-4---4-----|
D|-0-0-0-0-0-0-0-0-|-4-4-4-4-4-4-4-4-|-4-4-4---4-4-4-4-|---4-4-4---4-----|
A|-----------------|-4-4-4-4-4-4-4-4-|-2-2-2-0h2-2-2-2-|-0h2-2-2-0h2-----|
E|-----------------|-2-2-2-2-2-2-2-2-|-----------------|-----------------|

[Verse]

e|-----------------|-----------------|-----------------|-----------------|
B|-----------------|-----------------|-----------------|-----------------|
G|-4-4-4-4-4-4-4-4-|-4-4-4-4-4-4-4-4-|-7-7-7-7-7-7-7-7-|-----------------|
D|-4-4-4-4-4-4-4-4-|-4-4-4-4-4-4-4-4-|-7-7-7-7-7-7-7-7-|-4-4-4-4-4-4-4-4-|
A|-2-2-2-2-2-2-2-2-|-2-2-2-2-2-2-2-2-|-5-5-5-5-5-5-5-5-|-4-4-4-4-4-4-4-4-|
E|-----------------|-----------------|-----------------|-2-2-2-2-2-2-2-2-|

e|-----------------|-----------------|-----------------|-----------------|
B|-----------------|-----------------|-----------------|-----------------|
G|-4-4-4-4-4-4-4-4-|-4-4-4-4-4-4-4-4-|-7-7-7-7-7-7-7-7-|-----------------|
D|-4-4-4-4-4-4-4-4-|-4-4-4-4-4-4-4-4-|-7-7-7-7-7-7-7-7-|-4-4-4-4-4-4-4-4-|
A|-2-2-2-2-2-2-2-2-|-2-2-2-2-2-2-2-2-|-5-5-5-5-5-5-5-5-|-4-4-4-4-4-4-4-4-|
E|-----------------|-----------------|-----------------|-2-2-2-2-2-2-2-2-|

e|-----------------|-----------------|-----------------|-----------------|
B|-----------------|-----------------|-----------------|-----------------|
G|-4-4-4---4-4-4-4-|---4-4-4---4-4-4-|-4-4-4-4-4-4-4-4-|-4-4-4-4-4-4-4-4-|
D|-4-4-4---4-4-4-4-|---4-4-4---4-4-4-|-4-4-4-4-4-4-4-4-|-4-4-4-4-4-4-4-4-|
A|-2-2-2-0h2-2-2-2-|-0h2-2-2-0h2-2-2-|-2-2-2-2-2-2-2-2-|-2-2-2-2-2-2-2-2-|
E|-----------------|-----------------|-----------------|-----------------|

e|-----------------|-----------------|-----------------|-----------------|
B|-----------------|-----------------|-----------------|-----------------|
G|-7-7-7-7-7-7-7-7-|-----------------|-4-4-4-4-4-4-4-4-|-4-4-4-4-4-4-4-4-|
D|-7-7-7-7-7-7-7-7-|-4-4-4-4-4-4-4-4-|-4-4-4-4-4-4-4-4-|-4-4-4-4-4-4-4-4-|
A|-5-5-5-5-5-5-5-5-|-4-4-4-4-4-4-4-4-|-2-2-2-2-2-2-2-2-|-2-2-2-2-2-2-2-2-|
E|-----------------|-2-2-2-2-2-2-2-2-|-----------------|-----------------|

e|-----------------|-----------------|-----------------|-----------------|
B|-----------------|-----------------|-----------------|-----------------|
G|-7-7-7-7-7-7-7-7-|-----------------|-----------------|-----------------|
D|-7-7-7-7-7-7-7-7-|-4-4-4-4-4-4-4-4-|-4-4-4---4-4-4-4-|---4-4-4---4-----|
A|-5-5-5-5-5-5-5-5-|-4-4-4-4-4-4-4-4-|-2-2-2-0h2-2-2-2-|-0h2-2-2-0h2-----|
E|-----------------|-2-2-2-2-2-2-2-2-|-----------------|-----------------|

[Outro]

e|-0---------------|-2---------------|-2---------------|
B|-0---------------|-3---------------|-3---------------|
G|-1---------------|-2---------------|-4---------------|
D|-2---------------|-0---------------|-4---------------|
A|-2---------------|-----------------|-2---------------|
E|-0---------------|-----------------|-----------------            
Submit corrections



        The Lonesome Boatman  lessons Hard to play? Try these video lessons and learn fast The Lonesome Boatman  lessons
        
↑ Back to top | Tablatures and chords for acoustic guitar and electric guitar, ukulele, drums are parodies/interpretations of the original songs. You may use it for private study, scholarship, research or language learning purposes only