» » »

Dropkick Murphys - The Lonesome Boatman Bass

Artists:  A B C D E F G H I J K L M N O P Q R S T U V W X Y Z # 

The Lonesome Boatman Bass

(ver. 1) Click to play this song!
Dropkick Murphys
 Rating:
4.3/5 (21 vote)
    The Lonesome Boatman  lessons Tabs too difficult? Try these video lessons and learn fast
                [Intro]

G|---------------|-----------------|--------------------|---------------|
D|---------------|-----------------|--------------------|---------------|
A|---------------|-----------------|--------------------|---------------|
E|-/7------------|-----------------|-/10----------------|-\2------------|

G|---------------|-----------------|--------------------|---------------|
D|---------------|-----------------|--------------------|---------------|
A|---------------|-----------------|--------------------|---------------|
E|-/7------------|-----------------|-/10----------------|-\2------------|

G|---------------|-----------------|--------------------|---------------|
D|---------------|-----------------|--------------------|---------------|
A|---------------|-----------------|--------------------|---------------|
E|-/7------------|-----------------|-0------------------|---------------|

G|--------------|-----------------|--------------------|---------------|
D|--------------|-----------------|--------------------|---------------|
A|--------------|-----------------|--------------------|---------------|
E|-7------------|-----------------|-0------------------|---------------|

G|--------------|-----------------|--------------------|----------------|
D|--------------|-----------------|--------------------|----------------|
A|--------------|-----------------|-5------------------|----------------|
E|-7------------|-----------------|--------------------|-2--------------|

G|--------------|-----------------|-----------------|
D|--------------|-----------------|-----------------|
A|--------------|-----------------|-----------------|
E|-7------------|-----------------|-----------------|

G|----------------|-----------------|-----------------|---------------|
D|----------------|-----------------|-----------------|---------------|
A|----------------|-----------------|-----------------|---------------|
E|-5/7------------|-----------------|-7/10------------|-\2------------|

G|----------------|-----------------|-----------------|--------------|
D|----------------|-----------------|-----------------|--------------|
A|----------------|-----------------|-----------------|--------------|
E|-5/7------------|-----------------|-7/10------------|-2------------|

G|------------------|-----------------|
D|------------------|-----------------|
A|------------------|-----------------|
E|-/7-7-7-7-7-7-7-7-|-7-7-7-7-7-7-7-7-|

[Verse]

G|-----------------|-----------------|-----------------|-----------------|
D|-----------------|-----------------|-----------------|-----------------|
A|-2-2-2-2-2-2-2-2-|-2-2-2-2-2-2-2-2-|-5-5-5-5-5-5-5-5-|-----------------|
E|-----------------|-----------------|-----------------|-2-2-2-2-2-2-2-2-|

G|-----------------|-----------------|-----------------|-------------------------|
D|-----------------|-----------------|-----------------|-------------------------|
A|-2-2-2-2-2-2-2-2-|-2-2-2-2-2-2-2-2-|-5-5-5-5-5-5-5-5-|-10-10-10-10-10-10-10-10-|
E|-----------------|-----------------|-----------------|-------------------------|

G|-----------------|-----------------|
D|-----------------|-----------------|
A|-2-2-2-0h2-2-2-2-|-0h2-2-2-0h2-----|
E|-----------------|-----------------|


[Bridge]

G|--------------|--------------|--------------|----------------|
D|--------------|--------------|--------------|----------------|
A|-7------------|-7------------|-2------------|-0h2------------|
E|--------------|--------------|--------------|----------------|

G|--------------|--------------|--------------|----------------|
D|--------------|--------------|--------------|----------------|
A|-7------------|-7------------|-2------------|-0h2------------|
E|--------------|--------------|--------------|----------------|

G|-----------------|-------------------------|-----------------|-----------------|
D|-----------------|-------------------------|-----------------|-----------------|
A|-5-5-5-5-5-5-5-5-|-10-10-10-10-10-10-10-10-|-2-2-2-0h2-2-2-2-|-0h2-2-2-0h2-----|
E|-----------------|-------------------------|-----------------|-----------------|

[Verse]

G|-----------------|-----------------|-----------------|-----------------|
D|-----------------|-----------------|-----------------|-----------------|
A|-2-2-2-2-2-2-2-2-|-2-2-2-2-2-2-2-2-|-5-5-5-5-5-5-5-5-|-----------------|
E|-----------------|-----------------|-----------------|-2-2-2-2-2-2-2-2-|

G|-----------------|-----------------|-----------------|-------------------------|
D|-----------------|-----------------|-----------------|-------------------------|
A|-2-2-2-2-2-2-2-2-|-2-2-2-2-2-2-2-2-|-5-5-5-5-5-5-5-5-|-10-10-10-10-10-10-10-10-|
E|-----------------|-----------------|-----------------|-------------------------|

G|-----------------|-----------------|-----------------|-----------------|
D|-----------------|-----------------|-----------------|-----------------|
A|-2-2-2-0h2-2-2-2-|-0h2-2-2-0h2-2-2-|-2-2-2-2-2-2-2-2-|-2-2-2-2-2-2-2-2-|
E|-----------------|-----------------|-----------------|-----------------|

G|-----------------|-----------------|-----------------|-----------------|
D|-----------------|-----------------|-----------------|-----------------|
A|-5-5-5-5-5-5-5-5-|-----------------|-2-2-2-2-2-2-2-2-|-2-2-2-2-2-2-2-2-|
E|-----------------|-2-2-2-2-2-2-2-2-|-----------------|-----------------|

G|-----------------|-------------------------|-----------------|-----------------|
D|-----------------|-------------------------|-----------------|-----------------|
A|-5-5-5-5-5-5-5-5-|-10-10-10-10-10-10-10-10-|-2-2-2-0h2-2-2-2-|-0h2-2-2-0h2-----|
E|-----------------|-------------------------|-----------------|-----------------|

[Outro]

G|-----------------|-----------------|-----------------|
D|-----------------|-----------------|-----------------|
A|-----------------|-5---------------|-2---------------|
E|-0---------------|-----------------|-----------------|            
Submit corrections

↑ Back to top | Tablatures and chords for acoustic guitar and electric guitar, ukulele, drums are parodies/interpretations of the original songs. You may use it for private study, scholarship, research or language learning purposes only