Home » D » Dropkick Murphys »

Dropkick Murphys - Boys On The Docks Tabs

Artists:  A B C D E F G H I J K L M N O P Q R S T U V W X Y Z # 

Boys On The Docks Tabs

(ver. 2) Click to play this song!
Dropkick Murphys
 Rating:
4/5 (4 votes)
                e:----------------------------------------------------------
B:----------------------------------------------------------
G:----------------------------------------------------------
D:5-5-5-5-5-----------5-5-5-5-5-----------7-7-7-7-7---------
A:3-3-3-3-3-5-5-5-5-5-3-3-3-3-3-5-5-5-5-5-5-5-5-5-5-5-5-5-5-5
E:----------3-3-3-3-3-----------3-3-3-3-3-----------3-3-3-3-3

e:-----------------------------------------------------------
B:-----------------------------------------------------------
G:-----------------------------------------------------------
D:----------5-5-5-5-5----------------------------------------
A:3-3-3-3-3-3-3-3-3-3-3-3-3-3-3-5-5-5-5-5--------------------
E:1-1-1-1-1-----------1-1-1-1-1-3-3-3-3-3--------------------

Reapeat this and you've basically got the song down.Listen to the song for the exact count.
            
Submit corrections

↑ Back to top | Tablatures and chords for acoustic guitar and electric guitar, ukulele, drums are parodies/interpretations of the original songs. You may use it for private study, scholarship, research or language learning purposes only