» » »

Dropkick Murphys - Blood & Whiskey Tabs

Artists:  A B C D E F G H I J K L M N O P Q R S T U V W X Y Z # 

Blood & Whiskey Tabs

(ver. 3) Click to play this song!
Dropkick Murphys
 Rating:
4.3/5 (26 votes)
                [Intro]

e|-3---------------|-----------------|-----------------|-----------------|
B|-3---------------|-----------------|-----------------|-----------------|
G|-----------------|-----------------|-----------------|-----------------|
D|-----------------|-----------------|-----------------|-----------------|
A|-2---------------|-----------------|-----------------|-----------------|
E|-3---------------|-----------------|-----------------|-----------------|

e|-3-----3-----3-3-|-3---------------|-0-----0-----3-3-|-3---------------|
B|-3-----3-----3-3-|-3---------------|-0-----0-----3-3-|-3---------------|
G|-----------------|-----------------|-0-----0---------|-----------------|
D|-------------2-2-|-----------------|-2-----2-----2-2-|-----------------|
A|-2-----2-----3-3-|-2---------------|-2-----2-----3-3-|-2---------------|
E|-3-----3---------|-3---------------|-0-----0---------|-3---------------|

e|-3-----3-----3-3-|-3---------------|-0-----0-----3-3-|-3---------------|
B|-3-----3-----3-3-|-3---------------|-0-----0-----3-3-|-3---------------|
G|-----------------|-----------------|-0-----0---------|-----------------|
D|-------------2-2-|-----------------|-2-----2-----2-2-|-----------------|
A|-2-----2-----3-3-|-2---------------|-2-----2-----3-3-|-2---------------|
E|-3-----3---------|-3---------------|-0-----0---------|-3---------------|

[Verse]

Guitar 1
e|-3-----3-----3-3-|-3---------------|-0-----0-----3-3-|-3---------------|
B|-3-----3-----3-3-|-3---------------|-0-----0-----3-3-|-3---------------|
G|-----------------|-----------------|-0-----0---------|-----------------|
D|-------------2-2-|-----------------|-2-----2-----2-2-|-----------------|
A|-2-----2-----3-3-|-2---------------|-2-----2-----3-3-|-2---------------|
E|-3-----3---------|-3---------------|-0-----0---------|-3---------------|

e|-3-----3-----3-3-|-3---------------|-0-----0-----3-3-|-3---------------|
B|-3-----3-----3-3-|-3---------------|-0-----0-----3-3-|-3---------------|
G|-----------------|-----------------|-0-----0---------|-----------------|
D|-------------2-2-|-----------------|-2-----2-----2-2-|-----------------|
A|-2-----2-----3-3-|-2---------------|-2-----2-----3-3-|-2---------------|
E|-3-----3---------|-3---------------|-0-----0---------|-3---------------|

Guitar 2 (Capo on 1st fret)
e|-x-----x-----2-2-|-x---------------|-2-----2-----2-2-|-x---------------|
B|-2-----2-----3-3-|-2---------------|-2-----2-----3-3-|-2---------------|
G|-2-----2-----2-2-|-2---------------|-2-----2-----2-2-|-2---------------|
D|-2-----2-----0-0-|-2---------------|-4-----4-----0-0-|-2---------------|
A|-0-----0---------|-0---------------|-4-----4---------|-0---------------|
E|-----------------|-----------------|-2-----2---------|-----------------|

e|-x-----x-----2-2-|-x---------------|-2-----2-----2-2-|-x---------------|
B|-2-----2-----3-3-|-2---------------|-2-----2-----3-3-|-2---------------|
G|-2-----2-----2-2-|-2---------------|-2-----2-----2-2-|-2---------------|
D|-2-----2-----0-0-|-2---------------|-4-----4-----0-0-|-2---------------|
A|-0-----0---------|-0---------------|-4-----4---------|-0---------------|
E|-----------------|-----------------|-2-----2---------|-----------------|

[Chorus]

e|-3-----3-----3-3-|-3---------------|-0-----0-----3-3-|-3---------------|
B|-3-----3-----3-3-|-3---------------|-0-----0-----3-3-|-3---------------|
G|-----------------|-----------------|-0-----0---------|-----------------|
D|-------------2-2-|-----------------|-2-----2-----2-2-|-----------------|
A|-2-----2-----3-3-|-2---------------|-2-----2-----3-3-|-2---------------|
E|-3-----3---------|-3---------------|-0-----0---------|-3---------------|

e|-3-----3-----3-3-|-3---------------|-0-----0-----3-3-|-3---------------|
B|-3-----3-----3-3-|-3---------------|-0-----0-----3-3-|-3---------------|
G|-----------------|-----------------|-0-----0---------|-----------------|
D|-------------2-2-|-----------------|-2-----2-----2-2-|-----------------|
A|-2-----2-----3-3-|-2---------------|-2-----2-----3-3-|-2---------------|
E|-3-----3---------|-3---------------|-0-----0---------|-3---------------|

Lead guitar (Capo on 3rd, syncs with bagpipes)
e|---------------------|-----------------|------------------------|-----------------|
B|---------------------|-----------------|------------------------|-----------------|
G|-/7-7-----7----9p7-5-|-7---------------|------------------------|-----------------|
D|---------------------|-----------------|-/9-9-----9----10p9-7-9\|\5---------------|
A|---------------------|-----------------|------------------------|-----------------|
E|---------------------|-----------------|------------------------|-----------------|

[Bridge]

e|------------------|-3-----2----2----|------------------|-3-----3----2----|
B|-1-----1------1-1-|-3-----3----3----|-1-----1------1-1-|-3-----3---------|
G|------------------|-------2----2----|------------------|-------3---------|
D|-2-----2------2-2-|-------0----0----|-3-----3------3-3-|-------0---------|
A|-3-----3------3-3-|-2-0-2-----------|-3-----3------3-3-|-2-0-2-----------|
E|------------------|-3---------------|------------------|-3---------------|

e|------------------|-3-----2---------|------------------|-2---2---2---2---|
B|-1-----1------1-1-|-3-----3---------|-1-----1------1-1-|-3---3---3---3---|
G|------------------|-------2---------|------------------|-2---2---2---2---|
D|-2-----2------2-2-|-------0---------|-3-----3------3-3-|-0---0---0---0---|
A|-3-----3------3-3-|-2-0-2-----------|-3-----3------3-3-|-----------------|
E|------------------|-3---------------|------------------|-----------------|

e|-3---------------|-----------------|-3-3-3-3-3-3-3-3-|-3-3-3-3-3-3-3-3-|
B|-3---------------|-----------------|-3-3-3-3-3-3-3-3-|-3-3-3-3-3-3-3-3-|
G|-----------------|-----------------|-----------------|-----------------|
D|-----------------|-----------------|-----------------|-----------------|
A|-2---------------|-----------------|-2-2-2-2-2-2-2-2-|-2-2-2-2-2-2-2-2-|
E|-3---------------|-----------------|-3-3-3-3-3-3-3-3-|-3-3-3-3-3-3-3-3-|

e|-3-3-3-3-3-3-3-3-|-3-3-3-3-3-3-3-3-|
B|-3-3-3-3-3-3-3-3-|-3-3-3-3-3-3-3-3-|
G|-----------------|-----------------|
D|-----------------|-----------------|
A|-2-2-2-2-2-2-2-2-|-2-2-2-2-2-2-2-2-|
E|-3-3-3-3-3-3-3-3-|-3-3-3-3-3-3-3-3-|            
Submit corrections

↑ Back to top | Tablatures and chords for acoustic guitar and electric guitar, ukulele, drums are parodies/interpretations of the original songs. You may use it for private study, scholarship, research or language learning purposes only