» » »

Dredg - Symbol Song Tabs

Artists:  A B C D E F G H I J K L M N O P Q R S T U V W X Y Z # 

Symbol Song Tabs

(ver. 3) Click to play this song!
Dredg
 Rating:
4/5 (4 votes)

 Symbol Song lessons Tabs too difficult? Try these video lessons and learn fast
 
                

My favorite song by my favorite band. I hope all you can play this and have 
a good time. Dredg is friggin amazing. Anyways. As far as sound goes I 
believe Engles plays out of a Marshall 900. I think he turns the volume of his guitar down and blasts the amp. I get a good sound from a spider line 6 
and delay. I put this together with help from my buddy matt, watching some 
vids, and live shows. P.s. also check this out…

************************************************************************************
SYMBOL SONG:

INTRO:
Guitar 1: (clean with slight delay)

                (upstroke)
                  |  |
E----------12-12p10-10-10-10--------------------------------------------------------
B-10-10-10-10-10-10-10-10h11/10-10-10-10-10-10--------------------------------------
G-10-10-10-10-10-10-10-10-10--9--9--9--9--9--9--9h10/12-10-9-(9)--------------------
D--0--0--0--------------------------------------------------------------------------
A-----------------------------------------------------------------------------------
E-----------------------------------------------------------------------------------

Guitar 2: (distorted)
E|----------------------------------------------------------------------------------
B|----------------------------------------------------------------------------------
G|----------------------------------------------------------------------------------
D|-7-7-----------------------5-5----------------------------------------------------
A|-7-7-----------------------5-5----------------------------------------------------
E|-5-5-----------------------5-5----------------------------------------------------

************************************************************************************

VERSES: (all these have same rhythm, you can play just one and get away with it)

RIFF A: Keep repeating as main riff
E-----------------------------------------------------------------------------------
B-----------------------------------------------------------------------------------
G--10-10---10-9-12-10-9-------------------------------------------------------------
D---0--0----0-0--0--0-0—------------------------------------------------------------
A---0--0----0-0--0--0-0-------------------------------------------------------------
E-----------------------------------------------------------------------------------

RIFF B: When vocals come in and other parts in the song play this riff…
E-----------------------------------------------------------------------------------
B--11-10-10-------------------------------------------------------------------------
G--10-10-10—10-9-12-10-9-10---------------------------------------------------------
D---0--0--0--0-0--0--0-0--0---------------------------------------------------------
A---------0--0-0--0--0-0--0---------------------------------------------------------
E-----------------------------------------------------------------------------------

RIFF C: second and third verses as gavin sings “and drop down” add this riff twice…
E-----------------------------------------------------------------------------------
B---10-10-10------------------------------------------------------------------------
G---11-11-11-10-9-12-10-9-----------------------------------------------------------
D-—--7--7--7--0-0--0--0-0-----------------------------------------------------------
A—---7--7--7--0-0--0--0-0-----------------------------------------------------------
E----7--7--7------------------------------------------------------------------------
     |
 (upstroke)

RIFF D: This is played in the third verse a few times after RIFF A is played once.
E-----------------------------------------------------------------------------------
B----13-----------------------------------------------------------------------------
G-10-10-10--10-9-12-10-9-10---------------------------------------------------------
D--0--0--0---0-0-12-10-9-10---------------------------------------------------------
A--0--0--0---0-0--0--0-0--0---------------------------------------------------------
E-----------------------------------------------------------------------------------

************************************************************************************

CHORUS-

AFTER FIRST VERSE: (with slight delay)

E-----------------------------------------------------------------------------------
B-----------------------------------------------------------------------------------
G-----12-12-/10 10-10------10-10-/9--9--9-------------------------------------------
D—-x---x--x---x--x--x---x---x—-x--x--x--x-------------------------------------------
A-10--10-10--10-10-10---9---9--9--9--9--9-------------------------------------------
E--8---8--8---8--8--8---7---7--7--7—-7--7-------------------------------------------

AFTER SECOND AND THIRD VERSE: (with slight delay)
E-----------------------------------------------------------------------------------
B-------------------------------------------------------------3-3-3-3-3-3-3-3-3-----
G-----12-12-/10 10-10------10-10-/9--9--9------10-10-101010---2-2-2-2-2-2-2-2-2-----
D—-x---x--x---x--x--x--x----x—-x--x--x--x--x----x--x--x-x-x---0-0-0-0-0-0-0-0-0-----
A-10--10-10--10-10-10--9----9--9--9--9--9--8----8--8--8-8-8---0-0-0-0-0-0-0-0-0-----
E--8---8--8---8--8--8--7----7--7--7—-7--7--6----6--6--6-6-6---0-0-0-0-0-0-0-0-0-----

E-----------------------------------------------------------------------------------
B-------------------------------------------------------------3-3-3-3-3-3-3-3-3-----
G-----12-12-/10 10-10------10-10-/9--9--9------10-10-101010---2-2-2-2-2-2-2-2-2-----
D—-x---x--x---x--x--x--x----x—-x--x--x--x--x----x--x--x-x-x---0-0-0-0-0-0-0-0-0-----
A-10--10-10--10-10-10--9----9--9--9--9--9--8----8--8--8-8-8---0-0-0-0-0-0-0-0-0-----
E--8---8--8---8--8--8--7----7--7--7—-7--7--6----6--6--6-6-6---0-0-0-0-0-0-0-0-0-----

E-----------------------------------------------------------------------------------
B-------------------------------------------------------------3-3-3-3-3-3-3-3-3-----
G-----12-12-/10 10-10------10-10-/9--9--9------10-10-/8-8-8---2-2-2-2-2-2-2-2-2-----
D—-x---x--x---x--x--x--x----x—-x--x--x--x--x----x--x--x-x-x---0-0-0-0-0-0-0-0-0-----
A-10--10-10--10-10-10--9----9--9--9--9--9--8----8--8--8-8-8---0-0-0-0-0-0-0-0-0-----
E--8---8--8---8--8--8--7----7--7--7—-7--7--6----6--6--6-6-6---0-0-0-0-0-0-0-0-0-----

************************************************************************************
OUTRO…into movement I
E-----------------------------------------------------------------------------------
B---3-3-3-3-3-3-3-3-3-3-3-3-3-3-3-3----3—-3-----------------------------------------
G---2-2-2-2-2-2-2-2-2-2-2-2-2-2-2-2----2—-2-----------------------------------------
D---0-0-0-0-0-0-0-0-0-0-0-0-0-0-0-0----0—-0-----------------------------------------
A---0-0-0-0-0-0-0-0-0-0-0-0-0-0-0-0----0—-0-----------------------------------------
E---0-0-0-0-0-0-0-0-0-0-0-0-0-0-0-0----0—-0-----------------------------------------
Right into… MOVEMENT I: @45N 180W

************************************************************************************

MOVEMENT I: @45N 180W

PLAY THIS TWICE: Listen for the Palm Mutes
E-----------------------------------------------------------------------------------
B--xx-x-x-xx-x-x-x-xx---x--x-xx--x-x--x-xx---x-x-xx-x-x-x-xx---x-x-xx-x-x-x---------
G--xx-7-7-xx-7-x-7-xx--10-10-xx-10-x-10-xx---3-3-xx-3-x-3-xx---5-5-xx-5-x-5---------
D--xx-0-0-xx-0-x-7-xx---0--0-xx--0-x--0-xx---0-0-xx-0-x-0-xx---0-0-xx-0-x-0---------
A--xx-0-0-xx-0-x-0-xx—--0--0-xx--0-x--0-xx---0-0-xx-0-x-0-xx---0-0-xx-0-x-0---------
E-----------------------------------------------------------------------------------

PLAY THIS TWICE: Listen for the Palm Mutes
E-----------------------------------------------------------------------------------
B--xx-x-x-xx-10-x-8-x---x--x-xx-13-x-11--x---x-x-xx-6-x-5-x---x-x-xx-8-x-6-x--------
G--xx-7-7-xx--7-x-7-7--10-10-xx-10-x-10-10---3-3-xx-3-x-3-3---5-5-xx-5-x-5-5--------
D--xx-0-0-xx--0-x-7-0---0--0-xx--0-x--0--0---0-0-xx-0-x-0-0---0-0-xx-0-x-0-0--------
A--xx-0-0-xx--0-x-0-0—--0--0-xx--0-x--0--0---0-0-xx-0-x-0-0---0-0-xx-0-x-0-0--------
E-----------------------------------------------------------------------------------

PLAY THIS FOR THE REST OF THE SONG: No Muting
E-----------------------------------------------------------------------------------
B---x-x-x-x-10-10-8-8---x--x--x--x--13-13-11-11--x-x-x-x-6-6-5-5---x-x-x-x-8-8-6-6--
G---7-7-7-7--7--7-7-7--10-10-10-10--10-10-10-10--3-3-3-3-3-3-3-3---5-5-5-5-5-5-5-5--
D---0-0-0-0--0--0-7-0---0--0--0--0--0--0--0--0---0-0-0-0-0-0-0-0---0-0-0-0-0-0-0-0--
A---0-0-0-0--0--0-0-0—--0--0--0--0--0--0--0--0---0-0-0-0-0-0-0-0---0-0-0-0-0-0-0-0--
E-----------------------------------------------------------------------------------
      |
If you play it right
you will end right here


enjoy.
            
Submit corrections


        Symbol Song lessons Hard to play? Try these video lessons and learn fast Symbol Song lessons
        
↑ Back to top | Tablatures and chords for acoustic guitar and electric guitar, ukulele, drums are parodies/interpretations of the original songs. You may use it for private study, scholarship, research or language learning purposes only