» » »

Dredg - Symbol Song Tabs

Artists:  A B C D E F G H I J K L M N O P Q R S T U V W X Y Z # 

Symbol Song Tabs

(ver. 2) Click to play this song!
Dredg
 Rating:
4/5 (4 votes)

 Symbol Song lessons Tabs too difficult? Try these video lessons and learn fast
 
                Hello everyone that is reading this. Dredg is awesome
and so is this song, so thats why i wanted to share it with
everyone. This is my first tab so please be kind. enjoy

---------12-10-10-------------------------------------------------------------
--10-10--10-10-10h11/10-10----------------------------------------------------
--10-10-----------10/9--9--9h10-12-10-9---------------------------------------
    This is the Intro. Play this about 10-12 times.                           

-1010-10-9-12-10-9-10---------------------------------------------------------
-0-0--0--0-0--0--0-0----------------------------------------------------------
   This is the verse and pretty much the whole song sorta.                    

-----------------------11-10-10-----------------------------------------------
--1010-10-9-12-10-9-10-10-9--9------------------------------------------------
--0-0--0--0-0--0--0-0--0--0--0------------------------------------------------
     at some point he does this. Im not sure on the chorus sorry.
            
Submit corrections


        Symbol Song lessons Hard to play? Try these video lessons and learn fast Symbol Song lessons
        
↑ Back to top | Tablatures and chords for acoustic guitar and electric guitar, ukulele, drums are parodies/interpretations of the original songs. You may use it for private study, scholarship, research or language learning purposes only