» » »

Dredg - Sanzen Tabs

Artists:  A B C D E F G H I J K L M N O P Q R S T U V W X Y Z # 

Sanzen Tabs

(ver. 2) Click to play this song!
Dredg
 Rating:
4/5 (4 votes)

 Sanzen lessons Tabs too difficult? Try these video lessons and learn fast
 
                
verse 1:
E|-------------------------------------
B|-------------------------------------
G|-15-12---15-12---15-13-12---15-13-12-
D|-13-10---13-10---13-11-10---13-11-10-
A|-13-10---13-10---13-11-10---13-11-10-
D|-13-10---13-10---13-11-10---13-11-10-

chorus 2:
E|--------------------------------------------
B|--------------------------------------------
G|-12-----10---10---8-10--12------------10--8-
D|-10-----8----8----6-8---10------------8---6-
A|-10-----8----8----6-8---10------------8---6-
D|-10-----8----8----6-8---10------------8---6-
    hold  on   hold on    we'll be with you soon

verse 2:
E|--------------------------
B|--------------------------
G|-15-12---15-12---15-13-12-
D|-13-10---13-10---13-11-10-
A|-13-10---13-10---13-11-10-
D|-13-10---13-10---13-11-10-

chorus 2:
E|-----------------------------------------------------------------
B|-----------------------------------------------------------------
G|-12-----10---10---8-10--12------------10--8-----12------------10-
D|-10-----8----8----6-8---10------------8---6-----10------------8--
A|-10-----8----8----6-8---10------------8---6-----10------------8--
D|-10-----8----8----6-8---10------------8---6-----10------------8--
    hold  on   hold on    we'll be with you soon  we'll be with you

bridge:
   |x8__|    |x8__|    |x8__|    |x4__|
E|--------------------------------------|-------
B|--------------------------------------|-------
G|--------------------------------------|-12-15-
D|--------------------------------------|-10-13-
A|-131313-10-101010-13-131313-10-101010-|-10-13-
D|-131313-10-101010-13-131313-10-101010-|-10-13-

E|---------------------------------------------
B|---------------------------------------------
G|---------------------------------------------
D|---------------------------------------------
A|---------------------------------------------(bend string)
D|-13^^^^^^^^-10^^^^^^^^-13^^^^^^^^-10^^^^^^^^-(up and down)

solo:
pt.1 x2                                   |pt.2 x2
E|----------------------------------------|--------------------------
B|----------------------------------------|--------------------------
G|-19-19-19-20P19-19-17/19-19-12-12-12-12-|-15-13-12-20--15-13-12-20-
D|----------------------------------------|--------------------------
A|----------------------------------------|--------------------------
D|----------------------------------------|--------------------------
   
last chorus:                                       
E|-----------------------------------------------------------------
B|-----------------------------------------------------------------
G|-12-----10---10---8-10--12------------10--8-----12------------10-
D|-10-----8----8----6-8---10------------8---6-----10------------8--
A|-10-----8----8----6-8---10------------8---6-----10------------8--
D|-10-----8----8----6-8---10------------8---6-----10------------8--
    hold  on   hold on    we'll be with you soon  we'll be with you
            
Submit corrections


        Sanzen lessons Hard to play? Try these video lessons and learn fast Sanzen lessons
        
↑ Back to top | Tablatures and chords for acoustic guitar and electric guitar, ukulele, drums are parodies/interpretations of the original songs. You may use it for private study, scholarship, research or language learning purposes only