» » »

Dredg - Sanzen Tabs

Artists:  A B C D E F G H I J K L M N O P Q R S T U V W X Y Z # 

Sanzen Tabs

(ver. 1) Click to play this song!
Dredg
 Rating:
4/5 (4 votes)

 Sanzen lessons Tabs too difficult? Try these video lessons and learn fast
 
                ...... = repeat same note(s)   
INTRO:

   fast strum

   E--------------------4.......---

   B--------------------4.......---

   G-------------------------------

   D--8.........................---

   A--6.........................---

   E--4.........................---

   

   VERSE:

   listen to CD for rhythm

   E-----------------    -----------------------------------------

   B--15-------8-----    -11----9------15-----11----9------8------

   G-----------------    ----------12------------------12---------

   D--12-------5----- x2 --------------12------------------5------

   A--13-------6-----    -10---10--10--13-----10---10--10--6------

   E--11-------4-----    --8----8---8--11------8----8---8--4------

   

   CHORUS:

   fast strum

   E-------------------------------------4........--

   B-------------8....9..11..------------4........--

   G--------7....-------------------7....5........--

   D--13....-----8...........-13....-----8........--

   A--10....8....6...........-10....8....6........--

   E---8....6....--------------8....6....4........--

   

   VERSE:

   listen to CD for rhythm

   E-------------------    ----------------------

   B--15---------8-----    --11----9-------8-----

   G-------------------    -----------12---------

   D--12---------5----- x2 ----------------5-----

   A--13---------6-----    --10---10--10---6-----

   E--11---------4-----    ---8----8---8---4-----

   

   CHORUS:

   fast strum

   E-----------------------------------4........-------------

   B-------------8....9..11------------4........-------------

   G--------7....-----------------7....5........-------7....-

   D--13....-----8........--13....-----8........-13....------

   A--10....8....6.........-10....8....6........-10....8....-

   E---8....6....------------8....6....4........--8....6....-

   

   BRIDGE:

   E----------------------------------------------------------------

   B----------------------------------------------------------------

   G----------------------------------------------------------------

   D--15.-...-...-...-...-...-...-...12-...-...-...-...-...-...-...-

   A--13.-...-...-...-...-...-...-...10-...-...-...-...-...-...-...-

   E--11.-...-...-...-...-...-...-...-8-...-...-...-...-...-...-...-

   

   E-------------------------------------------------------

   B-------------------------------------------------------

   G-------------------------------------------------------

   D--15-...-...-...-...-...-...-...-...12-...-...-...-...-

   A--13-...-...-...-...-...-...-...-...10-...-...-...-...-

   E--11-...-...-...-...-...-...-...-...-8-...-...-...-...-

   

             fast strum

   E--4---6-------------------------------

   B--4---6-------------------------------

   G--5---7-------------------------------

   D--8---8--13---17---20---22------------

   A--6---8-------------------------------

   E--4---6--11---15---18---20------------

   

   BREAKDOWN:

   acoustic is doing something with this chord throughout:

   E----------------

   B--8-------------

   G--7-------------

   D--5-..-.-..-.---

   A----------------

   E----------------

   

   main guitar - listen for rhythm

   E------------------------------------------- 

   B-----15---15----16/15-13/15----8--8----8--- 

   G-------12-----------------------5------5--- 

   D------------------------------------------- x2 

   A--13----------13------------6-------6------ 

   E--11----------11------------4-------4------ 

                                                  build up

   E----------------------------------------------4----------

   B-11----9------------8-------11----9-----------4----------

   G----------12/13\12-------------------12/13\12------------

   D--------------------5-------------------------8----------

   A-10-----------------6-------10----------------6----------

   E--8-----------------4--------8----------------4----------

   

   repeat Chorus

    submitted by marcus
            
Submit corrections


        Sanzen lessons Hard to play? Try these video lessons and learn fast Sanzen lessons
        
↑ Back to top | Tablatures and chords for acoustic guitar and electric guitar, ukulele, drums are parodies/interpretations of the original songs. You may use it for private study, scholarship, research or language learning purposes only