» » »

Dream Theater - Chosen Tabs

Artists:  A B C D E F G H I J K L M N O P Q R S T U V W X Y Z # 

Chosen Tabs

(ver. 1) Click to play this song!
Dream Theater
 Rating:
4.4/5 (8 votes)

 Chosen  lessons Tabs too difficult? Try these video lessons and learn fast
 
                The guitar solo starts at 02:25

E|---------------------------------------------------------|
B|----------------------------------------12-13-15~--------|
G|-----------------9-------11-12-14-12-14-----------12-12~-|
D|---------9-10-12---10-12---------------------------------|
A|-9-10-12-------------------------------------------------|
E|---------------------------------------------------------|

E|-----------------|--------------------------|-------------|
B|-----------------|--------------------------|-------------|
G|----12-14-16-14~-|-11-11h12p11--------------|----11-12-14-|
D|-12--------------|-------------12-12h14p12~-|-14----------|
A|-----------------|--------------------------|-------------|
E|-----------------|--------------------------|-------------|

E|----------12h15p12-------------------|
B|-------13----------13----------------|
G|-12h14----------------14p12----------|
D|----------------------------14-------|
A|-------------------------------15p12-|
E|-------------------------------------|

E|----------------------------------------------14-|-15----17-15h17p15--------------------|
B|-------------------------------------13-15-17----|----15-------------15-----------------|
G|----------12-------12-14----12-14-16-------------|----------------------17-16-0-14-0-12-|
D|-12-14-16----14-16-------16----------------------|--------------------------------------|
A|-------------------------------------------------|--------------------------------------|
E|-------------------------------------------------|--------------------------------------|

E|--------7-8-10-12-10-8-14-12-10-15-14-12-------------------------------|
B|-7-8-10----------------------------------15-13-12----------------------|
G|--------------------------------------------------14-12-11-------------|
D|-----------------------------------------------------------14-12-------|
A|-----------------------------------------------------------------15-14-|
E|-----------------------------------------------------------------------|

E|-19b-19br-19~---------------------------|-17-19-19-20-17~-|
B|--------------19-19-20-22-20b-20-19-20~-|-----------------|
G|----------------------------------------|-----------------|
D|----------------------------------------|-----------------|
A|----------------------------------------|-----------------|
E|----------------------------------------|-----------------|

E|-13p12-------------------------|------------|----------------|
B|-------15p13-------------------|------------|-------------15-|
G|-------------16p12-------------|----------7-|-------11h14----|
D|-------------------12p9--------|-----7h10---|-12h14----------|
A|-------------------------10----|-7h8--------|----------------|
E|-------------------------------|------------|----------------|

E|----------14h17p14----------14-17-19-22~-|
B|-------15----------17-15-17--------------|
G|----14-----------------------------------|
D|-16--------------------------------------|
A|-----------------------------------------|
E|-----------------------------------------|            
Submit corrections


        Chosen  lessons Hard to play? Try these video lessons and learn fast Chosen  lessons
        
↑ Back to top | Tablatures and chords for acoustic guitar and electric guitar, ukulele, drums are parodies/interpretations of the original songs. You may use it for private study, scholarship, research or language learning purposes only