Home » D » Dr. Dre »

Dr. Dre - Whats The Difference Tabs

Artists:  A B C D E F G H I J K L M N O P Q R S T U V W X Y Z # 

Whats The Difference Tabs

(ver. 2) Click to play this song!
Dr. Dre




[Repeats through the whole song]
          
        Bm        Esus2        D          F#
e|-------2----------3--|-------2----------2--|
B|-------3----------5--|-------3----------2--|
G|-------4----------4--|-------2----------3--|
D|-------4--4--2----2--|-------4--4-------4--|
A|--2----2---------(2)-|--5----5-----4----4--|
E|---------------------|------------------2--|
  

[Melody, starts at: 1:12]

e|---------------------|---------------------|
B|---------------------|---------------------|
G|-----7-----8~--------|-----7-----5---------|
D|--4-----4------------|--4-----4-----7-6-4--|
A|---------------------|---------------------|
E|---------------------|---------------------|
            
Submit corrections

↑ Back to top | Tablatures and chords for acoustic guitar and electric guitar, ukulele, drums are parodies/interpretations of the original songs. You may use it for private study, scholarship, research or language learning purposes only