» » »

Dr. Dre - Next Episode Tabs

Artists:  A B C D E F G H I J K L M N O P Q R S T U V W X Y Z # 

Next Episode Tabs

(ver. 1) Click to play this song!
Dr. Dre
 Rating:
4/5 (4 votes)

 Next Episode lessons Tabs too difficult? Try these video lessons and learn fast
 
                Normal tuning~
for timing listen to the song
this is the correct pitch for this song
this is my first tab but i know its 100%
correct plz rate it

----------6--6-4-6--4-2-4---4-2----------
-------4--------------------------4--2--4
-----------------------------------------
-----------------------------------------
-----------------------------------------
-----------------------------------------

----------6--6-4-6--4-2-4---4-2----------
-------4--------------------------4--2--4
-----------------------------------------
-----------------------------------------
-----------------------------------------
-----------------------------------------

----------6--6-4-6--4-2-4---4-2----------
-------4--------------------------4--2--4
-----------------------------------------
-----------------------------------------
-----------------------------------------
-----------------------------------------

----------6--6-4-6--4-2-4---4-2----------
-------4--------------------------4--2--4
-----------------------------------------
-----------------------------------------
-----------------------------------------
-----------------------------------------

----------6--6-4-6--4-2-4---4-2----------
-------4--------------------------4--2--4
-----------------------------------------
-----------------------------------------
-----------------------------------------
-----------------------------------------

----------6--6-4-6--4-2-4---4-2----------
-------4--------------------------4--2--4
-----------------------------------------
-----------------------------------------
-----------------------------------------
-----------------------------------------

----------6--6-4-6--4-2-4---4-2----------
-------4--------------------------4--2--4
-----------------------------------------
-----------------------------------------
-----------------------------------------
-----------------------------------------
this go's on throughout song...enjoy
            
Submit corrections


        Next Episode lessons Hard to play? Try these video lessons and learn fast Next Episode lessons
        
↑ Back to top | Tablatures and chords for acoustic guitar and electric guitar, ukulele, drums are parodies/interpretations of the original songs. You may use it for private study, scholarship, research or language learning purposes only