» » »

Drake - Passionfruit Chords

Artists:  A B C D E F G H I J K L M N O P Q R S T U V W X Y Z # 

Passionfruit Chords

(ver. 6) Click to play this song!
Drake
 Rating:
4.4/5 (11 votes)

 Passionfruit  lessons Tabs too difficult? Try these video lessons and learn fast
 
                [Rhythmic Background Melody]
e|--------------|---------------|---------------|---------------|
B|--------------|---------------|---------------|---------------|
G|--4-6---4-6---|--4-6---4-6----|--4-6---4-6----|--4-6---4-6----|
D|--------------|---------------|---------------|---------------|
A|7-----7-------|7-----7--------|4-----4--------|4-----4--------|
E|--------------|---------------|---------------|---------------|

e|--------------|---------------|---------------|---------------|
B|--------------|---------------|--7-9----7-----|---------------|
G|--3-4---3-4---|--3-4---3-4----|-----------6---|--3-4---3-4----|
D|--------------|---------------|6-----6--------|---------------|
A|6-----6-------|6-----6--------|---------------|6-----6--------|
E|--------------|---------------|---------------|---------------|



[Verse 1]
EMaj7                        C#m7                 
Listen, seeing you got ritualistic
                       BMaj7               
Cleansin' my soul of addiction for now
                          G#m7        D#7         
'Cause I'm fallin' apart, yeah
EMaj7                         C#m7 
Tension between us just like picket fences
                            BMaj7      
You got issues that I won't mention for now
                         G#m7        D#7       
'Cause we're fallin' apart

[Chorus]
EMaj7                         
Passionate from miles away
                C#m7  
Passive with the things you say
                    
Passin' up on my old ways
D#m7                   G#m7        D#7       
I can't blame you, no, no

EMaj7                          
Passionate from miles away
                C#m7  
Passive with the things you say                    
Passin' up on my old ways
D#m7                   G#m7        D#7             
I can't blame you, no, no

[Instrumental]
EMaj7  BMaj7  E

[Verse 2]
EMaj7                                  C#m7   
Listen, hard at buildin' trust from a distance
                           BMaj7  
I think we should rule out commitment for now
                              G#m7        D#7       
'Cause we're fallin' apart
EMaj7                                   C#m7  
Leavin', you're just doing that to get even
                        BMaj7  
Don't pick up the pieces, just leave it for now
                         G#m7        D#7           
They keep fallin' apart

[Chorus]
EMaj7                         
Passionate from miles away
                C#m7  
Passive with the things you say                    
Passin' up on my old ways
D#m7                   G#m7        D#7                 
I can't blame you, no, no
EMaj7                          
Passionate from miles away
                C#m7  
Passive with the things you say                    
Passin' up on my old ways
D#m7                   G#m7        D#7       
I can't blame you, no, no


            
Submit corrections


        Passionfruit  lessons Hard to play? Try these video lessons and learn fast Passionfruit  lessons
        
↑ Back to top | Tablatures and chords for acoustic guitar and electric guitar, ukulele, drums are parodies/interpretations of the original songs. You may use it for private study, scholarship, research or language learning purposes only