» » »

Dragonforce - Valley Of The Damned Tabs

Artists:  A B C D E F G H I J K L M N O P Q R S T U V W X Y Z # 

Valley Of The Damned Tabs

(ver. 1) Click to play this song!
Dragonforce
 Rating:
4.3/5 (27 votes)

 Valley Of The Damned lessons Tabs too difficult? Try these video lessons and learn fast
 
                 4/4
     Gtr I
   T                         T                         T                         T        T
   E  E  E   E  E  E  E  E   E  E  E   E  E  E  E  E   E  E  E   E  E  E  E  E   S  S  E  S  S  E
|-20p19p15-----------15h19--20p19p15-----------15h19--20p19p15-----------15h19--22p19p15-22p19p15--|
|----------h17----17-----------------h17----17-----------------h17----17---------------------------|
|--------------16------------------------16------------------------16------------------------------|
|--------------------------------------------------------------------------------------------------|
|--------------------------------------------------------------------------------------------------|
|--------------------------------------------------------------------------------------------------|


 4/4
     Gtr I
   T                         T                         T                         T
   E  E  E   E  E  E  E  E   E  E  E   E  E  E  E  E   E  E  E   E  E  E  E  E   T   S  S  E  S   S  S  E
|-20p19p15-----------15h19--20p19p15-----------15h19--20p19p15-----------15h19--20/-24p19p15-20/-24p19p15--|
|----------h17----17-----------------h17----17-----------------h17----17-----------------------------------|
|--------------16------------------------16------------------------16--------------------------------------|
|----------------------------------------------------------------------------------------------------------|
|----------------------------------------------------------------------------------------------------------|
|----------------------------------------------------------------------------------------------------------|


 4/4
     Gtr I
   T                         T                         T                         T        T
   E  E  E   E  E  E  E  E   E  E  E   E  E  E  E  E   E  E  E   E  E  E  E  E   S  S  E  S  S  E
|-20p19p15-----------15h19--20p19p15-----------15h19--20p19p15-----------15h19--22p19p15-22p19p15--|
|----------h17----17-----------------h17----17-----------------h17----17---------------------------|
|--------------16------------------------16------------------------16------------------------------|
|--------------------------------------------------------------------------------------------------|
|--------------------------------------------------------------------------------------------------|
|--------------------------------------------------------------------------------------------------|


   T           T        T        T        T                        T           T
   E  E  E  E  E  E  E  E  E  E  E  E  E  E  Q   E  E  E  E  E  E  T  S  S  E  T  S  S  E
|-20p19p15--------------------------------------------------15h19-20s22p19p15-20s22p19p15----|
|----------17h20p17--------------------------------------17----------------------------------|
|-------------------16h21p16--------------------------16-------------------------------------|
|----------------------------17h21p17--------------17----------------------------------------|
|-------------------------------------19h22p19--19-------------------------------------------|
|--------------------------------------------------------------------------------------------|            
Submit corrections


        Valley Of The Damned lessons Hard to play? Try these video lessons and learn fast Valley Of The Damned lessons
        
↑ Back to top | Tablatures and chords for acoustic guitar and electric guitar, ukulele, drums are parodies/interpretations of the original songs. You may use it for private study, scholarship, research or language learning purposes only