» » »

Dragonforce - Soldiers Of The Wastelands Bass

Artists:  A B C D E F G H I J K L M N O P Q R S T U V W X Y Z # 

Soldiers Of The Wastelands Bass

(ver. 1) Click to play this song!
Dragonforce
 Rating:
4/5 (4 votes)

 Soldiers Of The Wastelands lessons Tabs too difficult? Try these video lessons and learn fast
 
                G  :----------------|----------------|----------------|--------------------|
D  :----------------|----------------|----------------|--------------------|
A  :----------------|----------------|----------------|--------------------|
E  :----------------|----------------|----------------|--------------------|

G  :----------------|----------------|----------------|----------------|
D  :----------------|----------------|----------------|----------------|
A  :2---------------|2-------0-------|2---------------|2-------0---2---|
E  :----------------|----------------|----------------|----------------|

G  :----------------|----------------|----------------|----------------|
D  :----------------|----------------|----------------|----------------|
A  :2---------------|2-------0-------|2---------------|2-------0---2---|
E  :----------------|----------------|----------------|----------------|

G  :----------------|----------------|----------------|----------------|
D  :----------------|----------------|----------------|----------------|
A  :*---------------|----------------|----------------|----------------|
E  :----------------|----------------|----------------|----------------|

G  :----------------|----------------|----------------|----------------|
D  :----------------|----------------|----------------|----------------|
A  :2-2-2-2-2-2-2-2-|2-2-2-2-2-2-2-2-|2-2-2-2-2-2-2-2-|----------------|
E  :----------------|----------------|----------------|2---------------|

G  :-------------------------------------------------------------|
D  :-------------------------------------------------------------|
A  :2-2-2-2-2-2-2-2-2-2-2-2-2-2-2-2-2-2-2-2-2-2-2-2-2-2-2-2-2-2-2|
E  :-------------------------------------------------------------|

G  :-------------------------------------------------------------|
D  :-------------------------------------------------------------|
A  :2-2-2-2-2-2-2-2-2-2-2-2-2-2-2-0-0-0-0-0-0-0-0-0-0-0-0-0-0-0-0|
E  :-------------------------------------------------------------|

G  :-------------------------------------------------------------|
D  :-------------------------------------------------------------|
A  :2-2-2-2-2-2-2-2-2-2-2-2-2-2-2-2-2-2-2-2-2-2-2-2-2-2-2-2-2-2-2|
E  :-------------------------------------------------------------|

G  :-------------------------------------------------------------|
D  :-------------------------------------------------------------|
A  :2-2-2-2-2-2-2-2-2-2-2-2-2-2-2-2-2-2-2-2-2-2-2-2-2-2-2-2-2-2-2|
E  :-------------------------------------------------------------|

G  :-------------------------------------------------------------|
D  :-------------------------------------------------------------|
A  :2-2-2-2-2-2-2-2-2-2-2-2-2-2-2-2-2-2-2-2-2-2-2-2-2-2-2-2-2-2-2|
E  :-------------------------------------------------------------|

G  :-------------------------------------------------------------|
D  :-------------------------------------------------------------|
A  :2-2-2-2-2-2-2-2-2-2-2-2-2-2-2-2-2-2-2-2-2-2-2-2-2-2-2-2-2-2-2|
E  :-------------------------------------------------------------|

G  :-------------------------------------------------------------|
D  :-------------------------------------------------------------|
A  :2-2-2-2-2-2-2-2-2-2-2-2-2-2-2-2-2-2-2-2-2-2-2-2-2-2-2-2-2-2-2|
E  :-------------------------------------------------------------|

G  :-------------------------------------------------------------|
D  :-------------------------------------------------------------|
A  :2-2-2-2-2-2-2-2-2-2-2-2-2-2-2-2-2-2-2-2-2-2-2-2-2-2-2-2-2-2-2|
E  :-------------------------------------------------------------|

G  :-----------------------------------------------------------|
D  :-----------------------------------------------------------|
A  :0-0-0-0-0-0-0-0-0-0-0-0-0-0-0-0-0-0-0-0-0-0-0-0-0-0-0-0-0-0|
E  :-----------------------------------------------------------|

G  :-----------------------------------------------------------|
D  :-----------------------------------------------------------|
A  :0-0-0-0-0-0-0-0-0-0-0-0-0-0-0-0-0-0-0-0-0-0-0-0-0-0-0-0-0-0|
E  :-----------------------------------------------------------|

G  :-------------------------------------------------------------|
D  :-------------------------------------------------------------|
A  :2-2-2-2-2-2-2-2-2-2-2-2-2-2-2-2-2-2-2-2-2-2-2-2-2-2-2-2-2-2-2|
E  :-------------------------------------------------------------|

G  :-------------------------------------------------------------|
D  :-------------------------------------------------------------|
A  :2-2-2-2-2-2-2-2-2-2-2-2-2-2-2-2-2-2-2-2-2-2-2-2-2-2-2-2-2-2-2|
E  :-------------------------------------------------------------|

G  :-------------------------------------------------------------|
D  :-------------------------------------------------------------|
A  :0-0-0-0-0-0-0-0-0-0-0-0-0-0-0-0-0-0-0-0-0-0-0-0-0-0-0-0-0-0-0|
E  :-------------------------------------------------------------|

G  :-------------------------------------------------------------|
D  :-------------------------------------------------------------|
A  :-------------------------------------------------------------|
E  :3-3-3-3-3-3-3-3-3-3-3-3-3-3-3-3-3-3-3-3-3-3-3-3-3-3-3-3-3-3-3|

G  :-------------------------------------------------------------|
D  :-------------------------------------------------------------|
A  :-------------------------------------------------------------|
E  :2-2-2-2-2-2-2-2-2-2-2-2-2-2-2-2-2-2-2-2-2-2-2-2-2-2-2-2-2-2-2|

G  :----------------|----------------|----------------|----------------|
D  :----------------|----------------|----------------|----------------|
A  :----------------|----------------|----------------|----------------|
E  :2---------------|*---------------|----------------|----------------|

G  :----------------|-----------------------------|
D  :----------------|-----------------------------|
A  :--------0-------|2-2-2-2-2-2-2-2-2-2-2-2-2-2-2|
E  :3---------------|-----------------------------|

G  :-------------------------------|-----------------------------|
D  :-------------------------------|-----------------------------|
A  :2-2-2-2-2-2-2-2-2-2-2-2-2-2-2-2|0-0-0-0-0-0-0-0-0-0-0-0-0-0-0|
E  :-------------------------------|-----------------------------|

G  :------------------------|
D  :------------------------|
A  :0-0-0-0-0-0-0-0-0-*-----|
E  :------------------------|

G  :---------------------------------------------------------|
D  :---------------------------------------------------------|
A  :5-5-5-5-5-5-5-5-5-5-5-5-5-5-5-5-5-5-5-5-5-5-5-5-5-5-5-5-5|
E  :---------------------------------------------------------|

G  :--------------------------------------|
D  :--------------------------------------|
A  :5-5-5-5-5-5-5-5-5-5-5-5-5-5-5-5-------|
E  :--------------------------------------|

G  :---------------------------------------------------------|
D  :---------------------------------------------------------|
A  :---------------------------------------------------------|
E  :3-3-3-3-3-3-3-3-3-3-3-3-3-3-3-3-3-3-3-3-3-3-3-3-3-3-3-3-3|

G  :--------------------------------------|
D  :--------------------------------------|
A  :--------------------------------------|
E  :3-3-3-3-3-3-3-3-3-3-3-3-3-3-3-3-------|

G  :---------------------------------------------------------|
D  :---------------------------------------------------------|
A  :5-5-5-5-5-5-5-5-5-5-5-5-5-5-5-5-5-5-5-5-5-5-5-5-5-5-5-5-5|
E  :---------------------------------------------------------|

G  :--------------------------------------|
D  :--------------------------------------|
A  :5-5-5-5-5-5-5-5-5-5-5-5-5-5-5-5-------|
E  :--------------------------------------|

G  :---------------------------------------------------------|
D  :---------------------------------------------------------|
A  :---------------------------------------------------------|
E  :3-3-3-3-3-3-3-3-3-3-3-3-3-3-3-3-3-3-3-3-3-3-3-3-3-3-3-3-3|

G  :--------------------------------------|----------------|
D  :--------------------------------------|----------------|
A  :--------------------------------------|7---------------|
E  :3-3-3-3-3-3-3-3-3-3-3-3-3-3-3-3-------|0---------------|

G  :-------------------------------------------------------|
D  :-------------------------------------------------------|
A  :5-5-5-5-5-5-5-5-5-5-5-5-5-5-5-5-5-5-5-5-5-5-5-5-5-5-5-5|
E  :-------------------------------------------------------|

G  :----------------|----------------|----------------|----------------|
D  :----------------|----------------|----------------|----------------|
A  :0---------------|2---------------|----------------|5---------------|
E  :----------------|----------------|3---------------|----------------|

G  :-------------------------------|------------------------|
D  :-------------------------------|------------------------|
A  :7-7-7-7-7-7-7-7-7-7-7-7-7-7-7-7|7-7-7-7-7-7-7-7---------|
E  :-------------------------------|----------------5-------|

G  :-------------------------------|-------------------------------|
D  :-------------------------------|-------------------------------|
A  :-------------------------------|5-5-5-5-5-5-5-5-5-5-5-5-5-5-5-5|
E  :7-7-7-7-7-7-7-7-7-7-7-7-7-7-7-7|-------------------------------|

G  :-------------------------------|-------------------------------|
D  :-------------------------------|-------------------------------|
A  :-------------------------------|-------------------------------|
E  :5-5-5-5-5-5-5-5-5-5-5-5-5-5-5-5|7-7-7-7-7-7-7-7-7-7-7-7-7-7-7-7|

G  :-------------------------------|-------------------------------|
D  :-------------------------------|-------------------------------|
A  :-------------------------------|5-5-5-5-5-5-5-5-5-5-5-5-5-5-5-5|
E  :7-7-7-7-7-7-7-7-7-7-7-7-7-7-7-7|-------------------------------|

G  :-------------------------------|-------------------------------|
D  :-------------------------------|-------------------------------|
A  :-------------------------------|-------------------------------|
E  :5-5-5-5-5-5-5-5-5-5-5-5-5-5-5-5|7-7-7-7-7-7-7-7-7-7-7-7-7-7-7-7|

G  :------------------------------|----------------------------|
D  :------------------------------|----------------------------|
A  :2-2-2-2-2-2-2-2-2-2-2-2-2-2-0-|2-2-2-2-2-2-2-2-2-2-2-2---0-|
E  :------------------------------|------------------------3---|

G  :------------------------------|----------------------------|
D  :------------------------------|----------------------------|
A  :2-2-2-2-2-2-2-2-2-2-2-2-2-2-0-|2-2-2-2-2-2-2-2-2-2-2-2---0-|
E  :------------------------------|------------------------3---|

G  :-------------------------------------------------------|
D  :-------------------------------------------------------|
A  :2-2-2-2-2-2-2-0-0-0-0-0-0-0----------------------------|
E  :----------------------------3-3-3-3-3-3-3-0-0-0-0-0-0-0|

G  :----------------|--------|-----------------------------|
D  :----------------|--------|-----------------------------|
A  :----------------|------0-|2-2-2-2-2-2-2-2-2-2-2-2-2-2-2|
E  :2-*-----2-*-----|2-*-2---|-----------------------------|

G  :-------------------------------|-----------------------------|
D  :-------------------------------|-----------------------------|
A  :2-2-2-2-2-2-2-2-2-2-2-2-2-2-2-2|0-0-0-0-0-0-0-0-0-0-0-0-0-0-0|
E  :-------------------------------|-----------------------------|

G  :------------------------|
D  :------------------------|
A  :0-0-0-0-0-0-0-0-0-*-----|
E  :------------------------|

G  :---------------------------------------------------------|
D  :---------------------------------------------------------|
A  :5-5-5-5-5-5-5-5-5-5-5-5-5-5-5-5-5-5-5-5-5-5-5-5-5-5-5-5-5|
E  :---------------------------------------------------------|

G  :--------------------------------------|
D  :--------------------------------------|
A  :5-5-5-5-5-5-5-5-5-5-5-5-5-5-5-5-------|
E  :--------------------------------------|

G  :---------------------------------------------------------|
D  :---------------------------------------------------------|
A  :---------------------------------------------------------|
E  :3-3-3-3-3-3-3-3-3-3-3-3-3-3-3-3-3-3-3-3-3-3-3-3-3-3-3-3-3|

G  :--------------------------------------|
D  :--------------------------------------|
A  :--------------------------------------|
E  :3-3-3-3-3-3-3-3-3-3-3-3-3-3-3-3-------|

G  :---------------------------------------------------------|
D  :---------------------------------------------------------|
A  :5-5-5-5-5-5-5-5-5-5-5-5-5-5-5-5-5-5-5-5-5-5-5-5-5-5-5-5-5|
E  :---------------------------------------------------------|

G  :--------------------------------------|
D  :--------------------------------------|
A  :5-5-5-5-5-5-5-5-5-5-5-5-5-5-5-5-------|
E  :--------------------------------------|

G  :---------------------------------------------------------|
D  :---------------------------------------------------------|
A  :---------------------------------------------------------|
E  :3-3-3-3-3-3-3-3-3-3-3-3-3-3-3-3-3-3-3-3-3-3-3-3-3-3-3-3-3|

G  :--------------------------------------|----------------|
D  :--------------------------------------|----------------|
A  :--------------------------------------|7---------------|
E  :3-3-3-3-3-3-3-3-3-3-3-3-3-3-3-3-------|0---------------|

G  :-------------------------------------------------------|
D  :-------------------------------------------------------|
A  :5-5-5-5-5-5-5-5-5-5-5-5-5-5-5-5-5-5-5-5-5-5-5-5-5-5-5-5|
E  :-------------------------------------------------------|

G  :----------------|----------------|----------------|----------------|
D  :----------------|----------------|----------------|----------------|
A  :0---------------|2---------------|----------------|5---------------|
E  :----------------|----------------|3---------------|----------------|

G  :-------------------------------|------------------------|
D  :-------------------------------|------------------------|
A  :7-7-7-7-7-7-7-7-7-7-7-7-7-7-7-7|7-7-7-7-7-7-7-7---------|
E  :-------------------------------|----------------5-------|

G  :-------------------------------|-------------------------------|
D  :-------------------------------|-------------------------------|
A  :-------------------------------|5-5-5-5-5-5-5-5-5-5-5-5-5-5-5-5|
E  :7-7-7-7-7-7-7-7-7-7-7-7-7-7-7-7|-------------------------------|

G  :-------------------------------|-------------------------------|
D  :-------------------------------|-------------------------------|
A  :-------------------------------|-------------------------------|
E  :5-5-5-5-5-5-5-5-5-5-5-5-5-5-5-5|7-7-7-7-7-7-7-7-7-7-7-7-7-7-7-7|

G  :-------------------------------|-------------------------------|
D  :-------------------------------|-------------------------------|
A  :-------------------------------|5-5-5-5-5-5-5-5-5-5-5-5-5-5-5-5|
E  :7-7-7-7-7-7-7-7-7-7-7-7-7-7-7-7|-------------------------------|

G  :-------------------------------|-------------------------------|
D  :-------------------------------|-------------------------------|
A  :-------------------------------|-------------------------------|
E  :5-5-5-5-5-5-5-5-5-5-5-5-5-5-5-5|7-7-7-7-7-7-7-7-7-7-7-7-7-7-7-7|

G  :------------------------------|----------------------------|
D  :------------------------------|----------------------------|
A  :2-2-2-2-2-2-2-2-2-2-2-2-2-2-0-|2-2-2-2-2-2-2-2-2-2-2-2---0-|
E  :------------------------------|------------------------3---|

G  :------------------------------|----------------------------|
D  :------------------------------|----------------------------|
A  :2-2-2-2-2-2-2-2-2-2-2-2-2-2-0-|2-2-2-2-2-2-2-2-2-2-2-2---0-|
E  :------------------------------|------------------------3---|

G  :-------------------------------------------------------|
D  :-------------------------------------------------------|
A  :2-2-2-2-2-2-2-0-0-0-0-0-0-0----------------------------|
E  :----------------------------3-3-3-3-3-3-3-0-0-0-0-0-0-0|

G  :-----------------|--------|----------------|----------------|
D  :-----------------|--------|----------------|----------------|
A  :-----------------|------0-|2---------------|----------------|
E  :2-*-2-2*-2-------|2-0-2---|----------------|----------------|

G  :----------------|----------------|----------------|----------------|
D  :----------------|----------------|----------------|----------------|
A  :----------------|----------------|*---------------|----------------|
E  :----------------|----------------|----------------|----------------|

G  :----------------|----------------|----------------|----------------|
D  :----------------|----------------|----------------|----------------|
A  :----------------|----------------|2---2-2-2-2-2-2-|2---2-2-2-2-2-2-|
E  :----------------|----------------|----------------|----------------|

G  :----------------|----------------|----------------|----------------|
D  :----------------|----------------|----------------|----------------|
A  :2---2-2-2-2-2-2-|2---2-2-2-2-2-2-|0---0-0-0-0-0-0-|0---0-0-0-0-0-0-|
E  :----------------|----------------|----------------|----------------|

G  :----------------|----------------|----------------|----------------|
D  :----------------|----------------|----------------|----------------|
A  :0---0-0-0-0-0-0-|0---0-0-0-0-0-0-|2---2-2-2-2-2-2-|2---2-2-2-2-2-2-|
E  :----------------|----------------|----------------|----------------|

G  :----------------|----------------|----------------|----------------|
D  :----------------|----------------|----------------|----------------|
A  :2---2-2-2-2-2-2-|2---2-2-2-2-2-2-|0---0-0-0-0-0-0-|0---0-0-0-0-0-0-|
E  :----------------|----------------|----------------|----------------|

G  :----------------|----------------|---------------------|
D  :----------------|----------------|---------------------|
A  :0---0-0-0-0-0-0-|0---0-0-0-0-0-0-|2---2-2-2-2-2-2-2-2-2|
E  :----------------|----------------|---------------------|

G  :-----------------------|---------------------|-----------------------|
D  :-----------------------|---------------------|-----------------------|
A  :2-2-2-2-2-2-2-2-2-2-2-2|---------------------|-----------------------|
E  :-----------------------|3---3-3-3-3-3-3-3-3-3|3-3-3-3-3-3-3-3-3-3-3-3|

G  :---------------------|-----------------------|---------------------|
D  :---------------------|-----------------------|---------------------|
A  :5---5-5-5-5-5-5-5-5-5|5-5-5-5-5-5-5-5-5-5-5-5|---------------------|
E  :---------------------|-----------------------|3---3-3-3-3-3-3-3-3-3|

G  :-----------------------|---------------------|-----------------------|
D  :-----------------------|---------------------|-----------------------|
A  :-----------------------|2---2-2-2-2-2-2-2-2-2|2-2-2-2-2-2-2-2-2-2-2-2|
E  :3-3-3-3-3-3-3-3-3-3-3-3|---------------------|-----------------------|

G  :---------------------|-----------------------|---------------------|
D  :---------------------|-----------------------|---------------------|
A  :---------------------|-----------------------|5---5-5-5-5-5-5-5-5-5|
E  :3---3-3-3-3-3-3-3-3-3|3-3-3-3-3-3-3-3-3-3-3-3|---------------------|

G  :-----------------------|---------------------|-----------------------|
D  :-----------------------|---------------------|-----------------------|
A  :5-5-5-5-5-5-5-5-5-5-5-5|---------------------|-----------------------|
E  :-----------------------|3---3-3-3-3-3-3-3-3-3|3-3-3-3-3-3-3-3-3-3-3-3|

G  :---------------------|-----------------------|---------------------|
D  :---------------------|-----------------------|---------------------|
A  :2---2-2-2-2-2-2-2-2-2|2-2-2-2-2-2-2-2-2-2-2-2|---------------------|
E  :---------------------|-----------------------|3---3-3-3-3-3-3-3-3-3|

G  :-----------------------|---------------------|-----------------------|
D  :-----------------------|---------------------|-----------------------|
A  :-----------------------|5---5-5-5-5-5-5-5-5-5|5-5-5-5-5-5-5-5-5-5-5-5|
E  :3-3-3-3-3-3-3-3-3-3-3-3|---------------------|-----------------------|

G  :---------------------|-----------------------|---------------------|
D  :---------------------|-----------------------|---------------------|
A  :---------------------|-----------------------|2---2-2-2-2-2-2-2-2-2|
E  :3---3-3-3-3-3-3-3-3-3|3-3-3-3-3-3-3-3-3-3-3-3|---------------------|

G  :-----------------------|---------------------|-----------------------|
D  :-----------------------|---------------------|-----------------------|
A  :2-2-2-2-2-2-2-2-2-2-2-2|---------------------|-----------------------|
E  :-----------------------|3---3-3-3-3-3-3-3-3-3|3-3-3-3-3-3-3-3-3-3-3-3|

G  :---------------------|-----------------------|---------------------|
D  :---------------------|-----------------------|---------------------|
A  :5---5-5-5-5-5-5-5-5-5|5-5-5-5-5-5-5-5-5-5-5-5|---------------------|
E  :---------------------|-----------------------|3---3-3-3-3-3-3-3-3-3|

G  :-----------------------|----------------|----------------|
D  :-----------------------|----------------|----------------|
A  :-----------------------|2---------------|----------------|
E  :3-3-3-3-3-3-3-3-3-3-3-3|----------------|----------------|

G  :----------------|----------------|----------------|----------------|
D  :----------------|----------------|----------------|----------------|
A  :5---------------|----------------|----------------|----------------|
E  :----------------|----------------|3---------------|----------------|

G  :----------------|----------------|----------------|----------------|
D  :----------------|----------------|----------------|----------------|
A  :5---------------|----------------|----------------|----------------|
E  :----------------|----------------|3---------------|----------------|

G  :----------------|----------------|----------------|----------------|
D  :----------------|----------------|----------------|----------------|
A  :5---------------|----------------|0---------------|----------------|
E  :----------------|----------------|----------------|----------------|

G  :----------------|----------------|----------------|----------------|
D  :----------------|----------------|----------------|----------------|
A  :2---------------|----------------|2-*-5-*-0-*-----|2-*-5-*-0-*-----|
E  :----------------|----------------|------------3-2-|------------3-2-|

G  :----------------|----------------|
D  :----------------|----------------|
A  :2-*-5-*-0-*-----|2-*-5-*-0-*-----|
E  :------------3-2-|------------3-2-|

G  :-------------------------------------------------------------|
D  :-------------------------------------------------------------|
A  :2-2-2-2-2-2-2-5-5-5-5-5-5-5-5-0-0-0-0-0-0-0-0----------------|
E  :----------------------------------------------3-3-3-3-2-2-2-2|

G  :-------------------------------------------------------------|
D  :-------------------------------------------------------------|
A  :2-2-2-2-2-2-2-5-5-5-5-5-5-5-5-0-0-0-0-0-0-0-0----------------|
E  :----------------------------------------------3-3-3-3-2-2-2-2|

G  :-------------------------------------------------------------|
D  :-------------------------------------------------------------|
A  :2-2-2-2-2-2-2-5-5-5-5-5-5-5-5-0-0-0-0-0-0-0-0----------------|
E  :----------------------------------------------3-3-3-3-2-2-2-2|

G  :-------------------------------------------------------------|
D  :-------------------------------------------------------------|
A  :2-2-2-2-2-2-2-5-5-5-5-5-5-5-5-0-0-0-0-0-0-0-0----------------|
E  :----------------------------------------------3-3-3-3-2-2-2-2|

G  :-------------------------------------------------------------|
D  :-------------------------------------------------------------|
A  :2-2-2-2-2-2-2-5-5-5-5-5-5-5-5-0-0-0-0-0-0-0-0----------------|
E  :----------------------------------------------3-3-3-3-2-2-2-2|

G  :-------------------------------------------------------------|
D  :-------------------------------------------------------------|
A  :2-2-2-2-2-2-2-5-5-5-5-5-5-5-5-0-0-0-0-0-0-0-0----------------|
E  :----------------------------------------------3-3-3-3-2-2-2-2|

G  :-------------------------------------------------------------|
D  :-------------------------------------------------------------|
A  :2-2-2-2-2-2-2-5-5-5-5-5-5-5-5-0-0-0-0-0-0-0-0----------------|
E  :----------------------------------------------3-3-3-3-2-2-2-2|

G  :--------------------------------------|--------------------------------|
D  :--------------------------------------|--------------------------------|
A  :2-2-2-2-2-2-2-5-5-5-5-5-5-5-5-0*0*----|2-2-2-2-2-2-----2-2-2-2-2-2-----|
E  :----------------------------------3-2-|--------------------------------|

G  :-----------------------------------------|
D  :-----------------------------------------|
A  :2-2-2-2-2-2-2-2-2-2-2-2-2-2-2-2--0--2----|
E  :-----------------------------------------|

G  :----------------------------------|
D  :----------------------------------|
A  :0-0-0-0-0-0-0-0-0-0-0-0-0-0-------|
E  :----------------------------------|

G  :--------------------------------------|--------------------------------|
D  :--------------------------------------|--------------------------------|
A  :----------------------------------0---|2-2-2-2-2-2-----2-2-2-2-2-2-----|
E  :2-2-2-2-2-2-2-2-2-2-2-2-2-2-2-3-------|--------------------------------|

G  :-----------------------------------------|
D  :-----------------------------------------|
A  :2-2-2-2-2-2-2-2-2-2-2-2-2-2-2-2--0--2----|
E  :-----------------------------------------|

G  :----------------------------------|----------------|----------------|
D  :----------------------------------|----------------|----------------|
A  :0-0-0-0-0-0-0-0-0-0-0-0-0-0-------|------------0---|--------5-------|
E  :----------------------------------|2-------3-------|3---------------|

G  :----------------|
D  :----------------|
A  :--------5-------|
E  :3---------------|

G  :---------------------------------------------------------|
D  :---------------------------------------------------------|
A  :7-7-7-7-7-7-7-7-7-7-7-7-7-7-7----------------------------|
E  :------------------------------3-3-3-3-3-3-3-3-3-3-3-3-3-3|

G  :---------------------------------------------------------|
D  :---------------------------------------------------------|
A  :5-5-5-5-5-5-5-5-5-5-5-5-5-5-5-0-0-0-0-0-0-0-0-0-0-0-0-0-0|
E  :---------------------------------------------------------|

G  :----------------|----------------|
D  :----------------|----------------|
A  :--------5-------|--------5-------|
E  :3---------------|3---------------|

G  :---------------------------------------------------------|
D  :---------------------------------------------------------|
A  :7-7-7-7-7-7-7-7-7-7-7-7-7-7-7----------------------------|
E  :------------------------------3-3-3-3-3-3-3-3-3-3-3-3-3-3|

G  :---------------------------------------------------------|
D  :---------------------------------------------------------|
A  :5-5-5-5-5-5-5-5-5-5-5-5-5-5-5-0-0-0-0-0-0-0-0-0-0-0-0-0-0|
E  :---------------------------------------------------------|

G  :-----------------------------------------------------------|
D  :-----------------------------------------------------------|
A  :2-2-2-2-2-2-2-2-2-2-2-2-2-2-2-0-0-0-0-0-0-0-0-0-0-0-0-0-0-0|
E  :-----------------------------------------------------------|

G  :--------------------------------------|
D  :--------------------------------------|
A  :----------------------------------0---|
E  :2-2-2-2-2-2-2-2-2-2-2-2-2-2-2-3-------|

G  :-----------------------------------------------------------|
D  :-----------------------------------------------------------|
A  :2-2-2-2-2-2-2-2-2-2-2-2-2-2-2-0-0-0-0-0-0-0-0-0-0-0-0-0-0-0|
E  :-----------------------------------------------------------|

G  :--------------------------------------|------------------------------|
D  :--------------------------------------|------------------------------|
A  :----------------------------------0---|------------------------------|
E  :2-2-2-2-2-2-2-2-2-2-2-2-2-2-2-3-------|3-3-3-3-3-3----3-3-3-3-3-3----|

G  :-------------------------------------------|----------------|
D  :-------------------------------------------|----------------|
A  :5--4--5---5-5-5-5-5-5-5--4--5---5-5-5-5-5-5|7---------------|
E  :-------------------------------------------|--------3-------|

G  :----------------|-------------------------------------------|
D  :----------------|-------------------------------------------|
A  :5-------0-------|-------------------------------------------|
E  :----------------|3--2--3---3-3-3-3-3-3-3--2--3---3-3-3-3-3-3|

G  :-------------------------------------------|----------------|
D  :-------------------------------------------|----------------|
A  :5--4--5---5-5-5-5-5-5-5--4--5---5-5-5-5-5-5|7---------------|
E  :-------------------------------------------|--------3-------|

G  :----------------|-----------------------------------------------|
D  :----------------|-----------------------------------------------|
A  :5-------0-------|7--7--7-7-7-7-7-7-7-7-7-7--7--7-7-7-7-7-7-7-7-7|
E  :----------------|-----------------------------------------------|

G  :-----------------------------------------------|
D  :-----------------------------------------------|
A  :5--5--5-5-5-5-5-5-5-5-5-5--5--5-5-5-5-5-5-5-5-5|
E  :-----------------------------------------------|

G  :---------------------------------------------------------|
D  :---------------------------------------------------------|
A  :0-0-0-0-0-0-0-0-0-0-0-0-0-0-0-0-0-0-0-0-0-0-0-0-0-0-0-0-0|
E  :---------------------------------------------------------|

G  :---------------------------------------------------------|
D  :---------------------------------------------------------|
A  :2-2-2-2-2-2-2-2-2-2-2-2-2-2-2-2-2-2-2-2-2-2-2-2-2-2-2-2-2|
E  :---------------------------------------------------------|

G  :-------------------------------|-------------------------------|
D  :-------------------------------|-------------------------------|
A  :7-7-7-7-7-7-7-7-7-7-7-7-7-7-7-7|5-5-5-5-5-5-5-5-5-5-5-5-5-5-5-5|
E  :-------------------------------|-------------------------------|

G  :---------------------------------------------------------|
D  :---------------------------------------------------------|
A  :0-0-0-0-0-0-0-0-0-0-0-0-0-0-0-0-0-0-0-0-0-0-0-0-0-0-0-0-0|
E  :---------------------------------------------------------|

G  :---------------------------------------------------------|
D  :---------------------------------------------------------|
A  :2-2-2-2-2-2-2-2-2-2-2-2-2-2-2-2-2-2-2-2-2-2-2-2-2-2-2-2-2|
E  :---------------------------------------------------------|

G  :----------------|----------------|
D  :----------------|----------------|
A  :--------5-------|0-------2-------|
E  :3---------------|----------------|

G  :---------------------------------------------------------|
D  :---------------------------------------------------------|
A  :7-7-7-7-7-7-7-7-7-7-7-7-7-7-7----------------------------|
E  :------------------------------3-3-3-3-3-3-3-3-3-3-3-3-3-3|

G  :--------------------------------------|----------------|
D  :--------------------------------------|----------------|
A  :5-5-5-5-5-5-5-5-5-5-5-5-5-5-5-0-------|--------5-------|
E  :--------------------------------------|3---------------|

G  :-----------------|----------------|----------------|----------------|
D  :-----------------|----------------|----------------|----------------|
A  :0--------2-------|----------------|----------------|----------------|
E  :-----------------|0-------2-------|3-------5-------|3---------------|

G  :----------------|
D  :----------------|
A  :5-*-------------|
E  :----------------|

G  :---------------------------------------------------------|
D  :---------------------------------------------------------|
A  :0-0-0-0-0-0-0-0-0-0-0-0-0-0-0-0-0-0-0-0-0-0-0-0-0-0-0-0-0|
E  :---------------------------------------------------------|

G  :---------------------------------------------------------|
D  :---------------------------------------------------------|
A  :2-2-2-2-2-2-2-2-2-2-2-2-2-2-2-2-2-2-2-2-2-2-2-2-2-2-2-2-2|
E  :---------------------------------------------------------|

G  :----------------|----------------|
D  :----------------|----------------|
A  :----------------|5---------------|
E  :3---------------|----------------|

G  :---------------------------------------------------|
D  :---------------------------------------------------|
A  :7-7-7-7-7-7-7-7-7-7-7-7-7-7-7-7-7-7-7-7-7-7-7-7-7-7|
E  :---------------------------------------------------|

G  :----------------------------------|-------------------------------|
D  :----------------------------------|-------------------------------|
A  :7-7-7-7-7-7-7-7-7-7-7-7-7---------|-------------------------------|
E  :--------------------------5-------|7-7-7-7-7-7-7-7-7-7-7-7-7-7-7-7|

G  :-------------------------------|-------------------------------|
D  :-------------------------------|-------------------------------|
A  :5-5-5-5-5-5-5-5-5-5-5-5-5-5-5-5|-------------------------------|
E  :-------------------------------|5-5-5-5-5-5-5-5-5-5-5-5-5-5-5-5|

G  :-------------------------------|-------------------------------|
D  :-------------------------------|-------------------------------|
A  :-------------------------------|-------------------------------|
E  :7-7-7-7-7-7-7-7-7-7-7-7-7-7-7-7|7-7-7-7-7-7-7-7-7-7-7-7-7-7-7-7|

G  :-------------------------------|-------------------------------|
D  :-------------------------------|-------------------------------|
A  :5-5-5-5-5-5-5-5-5-5-5-5-5-5-5-5|-------------------------------|
E  :-------------------------------|5-5-5-5-5-5-5-5-5-5-5-5-5-5-5-5|

G  :-------------------------------|------------------------------|
D  :-------------------------------|------------------------------|
A  :-------------------------------|2-2-2-2-2-2-2-2-2-2-2-2-2-2-0-|
E  :7-7-7-7-7-7-7-7-7-7-7-7-7-7-7-7|------------------------------|

G  :----------------------------|------------------------------|
D  :----------------------------|------------------------------|
A  :2-2-2-2-2-2-2-2-2-2-2-2---0-|2-2-2-2-2-2-2-2-2-2-2-2-2-2-0-|
E  :------------------------3---|------------------------------|

G  :----------------------------|
D  :----------------------------|
A  :2-2-2-2-2-2-2-2-2-2-2-2---0-|
E  :------------------------3---|

G  :-------------------------------------------------------|
D  :-------------------------------------------------------|
A  :2-2-2-2-2-2-2-0-0-0-0-0-0-0----------------------------|
E  :----------------------------3-3-3-3-3-3-3-0-0-0-0-0-0-0|

G  :----------------|------------------------|
D  :----------------|------------------------|
A  :--------------0-|2--2--0--2-----*--------|
E  :2-------2-0-2---|------------------------|
            
Submit corrections


        Soldiers Of The Wastelands lessons Hard to play? Try these video lessons and learn fast Soldiers Of The Wastelands lessons
        
↑ Back to top | Tablatures and chords for acoustic guitar and electric guitar, ukulele, drums are parodies/interpretations of the original songs. You may use it for private study, scholarship, research or language learning purposes only