» » »

Dragonforce - Revolution Deathsquad Bass

Artists:  A B C D E F G H I J K L M N O P Q R S T U V W X Y Z # 

Revolution Deathsquad Bass

(ver. 1) Click to play this song!
Dragonforce
 Rating:
4/5 (4 votes)

 Revolution Deathsquad lessons Tabs too difficult? Try these video lessons and learn fast
 
                
REVOLUTION DEATHSQUAD (Bassline)
As recorded by DragonForce
(From the 2006 Album INHUMAN RAMPAGE)

	

Words and Music by ZP Theart, H. Li, S. Totman, F. Leclercq, V. Pruzhanov, & D. Mackintosh

Gtr I (B E A D G) - 'Frederic Leclercq Bass'

 Intro
  POWER METAL! Q=250
 4/4
  Gtr I
  E E E E E E E E   E E E E E E E E   +E  E E E E E E E   E E E E E E E E
|-----------------|-----------------|-------------------|-----------------|
|-----------------|-----------------|-------------------|-----------------|
|-5-5-5-5-5-5-5-5-|-5-5-5-5-5-5-5-5-|-(5)-5-5-5-5-5-5-5-|-5-5-5-5-5-5-5-5-|
|-----------------|-----------------|-------------------|-----------------|
|-----------------|-----------------|-------------------|-----------------|


  E E E E E E E E   E E E E E E E E   +E  E E E E E E E   E E E E H      W
|-----------------|-----------------|-------------------|--------------|------|
|-----------------|-----------------|-------------------|--------------|------|
|-5-5-5-5-5-5-5-5-|-5-5-5-5-5-5-5---|-------------------|--------------|------|
|-----------------|---------------6-|-(6)-6-6-6-6-6-6-5-|---5---5------|------|
|-----------------|-----------------|-------------------|--------------|------|


  Power Metal Q=200
  E S S S S S S S S S S S S S S   S S S S S S S S S S S S S S S S
|-------------------------------|----------------------------------|
|-------------------------------|----------------------------------|
|-5-5-5-5-5-5-5-5-5-5-5-5-5-5-5-|-5-5-5-5-5-5-5-5-5-5-5-5-5-5-5-5--|
|-------------------------------|----------------------------------|
|-------------------------------|----------------------------------|


  W          W          E S S S S S S S S S S S S S S
|----------|----------|-------------------------------|
|----------|----------|-------------------------------|
|----------|-5--------|-5-5-5-5-5-5-5-5-5-5-5-5-5-5-5-|
|-6--------|----------|-------------------------------|
|----------|----------|-------------------------------|


  S S S S S S S S S S S S S S S S   W          H    H
|---------------------------------|----------|-----------|
|---------------------------------|----------|-----------|
|-5-5-5-5-5-5-5-5-5-5-5-5-5-5-5-5-|----------|-5----3----|
|---------------------------------|-6--------|-----------|
|---------------------------------|----------|-----------|


  H.      E E   W          W          H    H
|-------------|----------|----------|-----------|
|-------------|----------|----------|-----------|
|-5-------5-5-|-0--------|-1--------|------3----|
|-------------|----------|----------|-1---------|
|-------------|----------|----------|-----------|


  E S S S S S S S S S S S S S S   E S S S S S S S S S S S S S S
|-------------------------------|-------------------------------|
|-------------------------------|-------------------------------|
|-5-5-5-5-5-5-5-5-5-5-5-5-5-5-5-|-0-0-0-0-0-0-0-0-0-0-0-0-0-0-0-|
|-------------------------------|-------------------------------|
|-------------------------------|-------------------------------|


  E S S S S S S S S S S S S S S   H    H
|-------------------------------|-----------|
|-------------------------------|-----------|
|-1-1-1-1-1-1-1-1-1-1-1-1-1-1-1-|------3----|
|-------------------------------|-1---------|
|-------------------------------|-----------|


  Q  H.        Q  Q  H      E Q  E E Q.     E Q  E E Q.     Q  H.        W
|------------|------------|---------------|---------------|------------|------||
|------------|------------|---------------|---------------|------------|------||
|------------|----3-------|-1-1--1-1------|-1-1--1-1------|-0----------|------||
|-1----------|-1----------|---------------|---------------|------------|------||
|------------|------------|---------------|---------------|------------|------||


 Verse 1
  E S S S S S S S S S S S S S S
|-------------------------------|
|-------------------------------|
|-5-5-5-5-5-5-5-5-5-5-5-5-5-5-5-|
|-------------------------------|
|-------------------------------|


  E Q  E E E E E   E S S S S S S S S S S S S S S
|----------------|--------------------------------|
|----------------|--------------------------------|
|-5-5--5-5-3-1-3-|-5-5-5-5-5-5-5-5-5-5-5-5-5-5-5--|
|----------------|--------------------------------|
|----------------|--------------------------------|


  E Q  E E E Q    W          E E E E E E E E   W          W
|---------------|----------|-----------------|----------|------|
|----------3-3--|----------|-----------------|----------|------|
|-5-5--3s5------|-3--------|-3-3s1s3-5-3-1-3-|-1--------|-3----|
|---------------|----------|-----------------|----------|------|
|---------------|----------|-----------------|----------|------|


  E S S S S S S S S S S S S S S   E Q  E E E Q
|-------------------------------|---------------|
|-------------------------------|----------3-3--|
|-5-5-5-5-5-5-5-5-5-5-5-5-5-5-5-|-5-5--3s5------|
|-------------------------------|---------------|
|-------------------------------|---------------|


  E S S S S S S S S S S S S S S
|--------------------------------|
|--------------------------------|
|-5-5-5-5-5-5-5-5-5-5-5-5-5-5-5--|
|--------------------------------|
|--------------------------------|


  S S S S E E E E E E   W          E E E E E E E E
|---------------------|----------|-----------------|
|-3-3-3-3-3---3-2-----|----------|-----------------|
|-----------5-----5-3-|-3--------|-3-3s5-3s5-3-0-3-|
|---------------------|----------|-----------------|
|---------------------|----------|-----------------|


  S S S S S S S S S S S S S S S S
|----------------------------------|
|----------------------------------|
|-1-1-1-1-3-3-1-1-5-5-1-1-3-3-1-1--|
|----------------------------------|
|----------------------------------|


  S S E S S E S S E Q    Q.   S S E E E E   Q  E E Q  Q
|----------------------|------------------|--------------|
|----------------------|------------------|--------------|
|-3-3-3-3-3-3-3-3-3-3--|-1----1-1-1-1-0-1-|-3--3-3-3--3--|
|----------------------|------------------|--------------|
|----------------------|------------------|--------------|


  S S S S S S S S S S S S S S S S   S S S S S S S S S S S S S S S S
|---------------------------------|---------------------------------|
|---------------------------------|---------------------------------|
|-5-5-5-5-5-5-5-5-5-5-5-5-5-5-5-5-|---------------------------------|
|---------------------------------|-6-6-6-6-6-6-6-6-6-6-6-6-6-6-6-6-|
|---------------------------------|---------------------------------|


  E S S S S S S E S S S S S S   E S S S S S S E S S S S S S
|-----------------------------|------------------------------|
|-----------------------------|------------------------------|
|-3-3-3-3-3-3-3-3-3-3-3-3-3-3-|-3-3-3-3-3-3-3-3-3-3-3-3-3-3--|
|-----------------------------|------------------------------|
|-----------------------------|------------------------------|


  W          +W           H.      E E
|----------|------------|-------------|
|----------|------------|-------------|
|----------|------------|-1-------0-1-|
|-1--------|-(1)--------|-------------|
|----------|------------|-------------|


  H    +E  E E E   E E E Q  E E E   +W
|----------------|----------------|--------|
|----------------|----------------|--------|
|-3----(3)-3-5-3-|-5---5----3---1-|-(1)----|
|----------------|----------------|--------|
|----------------|----------------|--------|


  E S S S S S S S S S S S S S S   S S S S S S S S S S S S S S S S
|-------------------------------|----------------------------------|
|-------------------------------|----------------------------------|
|-3-3-3-3-3-3-3-3-3-3-3-3-3-3-3-|-3-3-3-3-3-3-3-3-3-3-3-3-3-3-3-3--|
|-------------------------------|----------------------------------|
|-------------------------------|----------------------------------|


  S S S S S S S S S S S S S S S S   S S S S S S S S S S S S S S S S
|---------------------------------|---------------------------------||
|-3-3-3-3-3-3-3-3-3-3-3-3-3-3-3-3-|---------------------------------||
|---------------------------------|-3-3-3-3-3-3-3-3-3-3-3-3-3-3-3-3-||
|---------------------------------|---------------------------------||
|---------------------------------|---------------------------------||


 Pre-Chorus 1
  E H.      E   W          E S S S S E S S S S E S S
|-------------|----------|---------------------------|
|-------------|----------|---------------------------|
|-0-----------|----------|-5-5-5-5-5-5-5-5-5-5-5-5-5-|
|-----------1-|----------|---------------------------|
|-------------|----------|---------------------------|


  E S S S S E S S S S E S S
|----------------------------|
|----------------------------|
|-3-3-3-3-3-3-3-3-3-3-3-3-3--|
|----------------------------|
|----------------------------|


  W          W          S S S S S S S S S S S S S S S S   E E E E E E E E
|----------|----------|---------------------------------|-----------------||
|----------|----------|---------------------------------|-----------------||
|-1--------|-0--------|-1-1-1-1-3-3-1-1-5-5-1-1-3-3-1-1-|-3---3---3---3---||
|----------|----------|---------------------------------|-----------------||
|----------|----------|---------------------------------|-----------------||


 Chorus 1
  H.      E E   Q.   E E E E E   W          S S E S S E S S E Q
|-------------|----------------|----------|----------------------|
|-------------|--------3-3-----|----------|----------------------|
|-5-------5-5-|-5----5-----5-3-|-1--------|-3-3-3-3-3-3-3-3-3-3--|
|-------------|----------------|----------|----------------------|
|-------------|----------------|----------|----------------------|


  E S S S S S S S S S S S S S S   S S S S S S S S S S S S S S S S   W
|-------------------------------|---------------------------------|------|
|-------------------------------|---------------------------------|------|
|-5-5-5-5-5-5-5-5-5-5-5-5-5-5-5-|-5-5-5-5-5-5-5-5-5-5-5-5-5-5-5-5-|-0----|
|-------------------------------|---------------------------------|------|
|-------------------------------|---------------------------------|------|


  S S E E E S S E E E   E S S S S S S S S S S S S S S
|---------------------|-------------------------------|
|---------------------|-------------------------------|
|-1-1-1-0-1-3-3-3-1-3-|-------------------------------|
|---------------------|-1-1-1-1-1-1-1-1-1-1-1-1-1-1-1-|
|---------------------|-------------------------------|


  S S S S S S S S S S S S S S S S
|---------------------------------|
|---------------------------------|
|---------------------------------|
|-1-1-1-1-1-1-1-1-1-1-1-1-1-1-1-1-|
|---------------------------------|


  Q.   S S E E E E   Q.   E E E E E   E S S S S S S S S S S S S S S
|------------------|----------------|-------------------------------|
|------------------|----------------|-------------------------------|
|-1----1-1-1-1-0-1-|-3----3s5-3s5-3-|-0-0-0-0-0-0-0-0-0-0-0-0-0-0-0-|
|------------------|----------------|-------------------------------|
|------------------|----------------|-------------------------------|


  E S S S S S S S S S S S S S S   E H..         W
|-------------------------------|-------------|------||
|-------------------------------|-------------|------||
|-1-1-1-1-1-1-1-1-1-1-1-1-1-1-1-|-3-----------|------||
|-------------------------------|-------------|------||
|-------------------------------|-------------|------||


 Interlude 1
  H    H      H    H      H    H      H    H      H    H      H    H
|-----------|-----------|-----------|-----------|-----------|-----------|
|-----------|-----------|-----------|-3---------|-----------|-----------|
|-5---------|-3----5----|-5---------|------3----|-5---------|-3----5----|
|------6----|-----------|------6----|-----------|------6----|-----------|
|-----------|-----------|-----------|-----------|-----------|-----------|


  Q  E E +H       Q  E E +H       E H..         E E E E E E Q    E H..
|---------------|---------------|-------------|----------------|----------||
|---------------|---------------|-------------|----------------|----------||
|---------------|-3--3-3-(3)----|-------------|-------------3--|----------||
|-1--1-1-(1)----|---------------|-1-----------|---6-5-3-5-6----|-6--------||
|---------------|---------------|-------------|----------------|----------||


 Verse 2
  E S S S S S S S S S S S S S S
|-------------------------------|
|-------------------------------|
|-5-5-5-5-5-5-5-5-5-5-5-5-5-5-5-|
|-------------------------------|
|-------------------------------|


  E Q  E E E E E   E S S S S S S S S S S S S S S
|----------------|--------------------------------|
|----------------|--------------------------------|
|-5-5--5-5-3-1-3-|-5-5-5-5-5-5-5-5-5-5-5-5-5-5-5--|
|----------------|--------------------------------|
|----------------|--------------------------------|


  E Q  E E E Q    W          E E E E E E E E   W          W
|---------------|----------|-----------------|----------|------|
|----------3-3--|----------|-----------------|----------|------|
|-5-5--3s5------|-3--------|-3-3s1s3-5-3-1-3-|-1--------|-3----|
|---------------|----------|-----------------|----------|------|
|---------------|----------|-----------------|----------|------|


  E S S S S S S S S S S S S S S   E Q  E E E Q
|-------------------------------|---------------|
|-------------------------------|----------3-3--|
|-5-5-5-5-5-5-5-5-5-5-5-5-5-5-5-|-5-5--3s5------|
|-------------------------------|---------------|
|-------------------------------|---------------|


  E S S S S S S S S S S S S S S
|--------------------------------|
|--------------------------------|
|-5-5-5-5-5-5-5-5-5-5-5-5-5-5-5--|
|--------------------------------|
|--------------------------------|


  S S S S E E E E E E   W          E E E E E E E E
|---------------------|----------|-----------------|
|-3-3-3-3-3---3-2-----|----------|-----------------|
|-----------5-----5-3-|-3--------|-3-3s5-3s5-3-0-3-|
|---------------------|----------|-----------------|
|---------------------|----------|-----------------|


  S S S S S S S S S S S S S S S S
|----------------------------------|
|----------------------------------|
|-1-1-1-1-3-3-1-1-5-5-1-1-3-3-1-1--|
|----------------------------------|
|----------------------------------|


  S S E S S E S S E Q    Q.   S S E E E E   Q  E E Q  Q
|----------------------|------------------|--------------|
|----------------------|------------------|--------------|
|-3-3-3-3-3-3-3-3-3-3--|-1----1-1-1-1-0-1-|-3--3-3-3--3--|
|----------------------|------------------|--------------|
|----------------------|------------------|--------------|


  S S S S S S S S S S S S S S S S   S S S S S S S S S S S S S S S S
|---------------------------------|---------------------------------|
|---------------------------------|---------------------------------|
|-5-5-5-5-5-5-5-5-5-5-5-5-5-5-5-5-|---------------------------------|
|---------------------------------|-6-6-6-6-6-6-6-6-6-6-6-6-6-6-6-6-|
|---------------------------------|---------------------------------|


  E S S S S S S E S S S S S S   E S S S S S S E S S S S S S
|-----------------------------|------------------------------|
|-----------------------------|------------------------------|
|-3-3-3-3-3-3-3-3-3-3-3-3-3-3-|-3-3-3-3-3-3-3-3-3-3-3-3-3-3--|
|-----------------------------|------------------------------|
|-----------------------------|------------------------------|


  W          +W           H.      E E
|----------|------------|-------------|
|----------|------------|-------------|
|----------|------------|-1-------0-1-|
|-1--------|-(1)--------|-------------|
|----------|------------|-------------|


  H    +E  E E E   E E E Q  E E E   +W
|----------------|----------------|--------|
|----------------|----------------|--------|
|-3----(3)-3-5-3-|-5---5----3---1-|-(1)----|
|----------------|----------------|--------|
|----------------|----------------|--------|


  E S S S S S S S S S S S S S S   S S S S S S S S S S S S S S S S
|-------------------------------|----------------------------------|
|-------------------------------|----------------------------------|
|-3-3-3-3-3-3-3-3-3-3-3-3-3-3-3-|-3-3-3-3-3-3-3-3-3-3-3-3-3-3-3-3--|
|-------------------------------|----------------------------------|
|-------------------------------|----------------------------------|


  S S S S S S S S S S S S S S S S   S S S S S S S S S S S S S S S S
|---------------------------------|---------------------------------||
|-3-3-3-3-3-3-3-3-3-3-3-3-3-3-3-3-|---------------------------------||
|---------------------------------|-3-3-3-3-3-3-3-3-3-3-3-3-3-3-3-3-||
|---------------------------------|---------------------------------||
|---------------------------------|---------------------------------||


 Pre-Chorus 2
  E H.      E   W          E S S S S E S S S S E S S
|-------------|----------|---------------------------|
|-------------|----------|---------------------------|
|-0-----------|----------|-5-5-5-5-5-5-5-5-5-5-5-5-5-|
|-----------1-|----------|---------------------------|
|-------------|----------|---------------------------|


  E S S S S E S S S S E S S
|----------------------------|
|----------------------------|
|-3-3-3-3-3-3-3-3-3-3-3-3-3--|
|----------------------------|
|----------------------------|


  W          W          E H..         W
|----------|----------|-------------|------||
|----------|----------|-------------|------||
|-1--------|-0--------|-1-----------|------||
|----------|----------|-------------|------||
|----------|----------|-------------|------||


 Chorus 2
  H.      E E   Q.   E E E E E   W          S S E S S E S S E Q
|-------------|----------------|----------|----------------------|
|-------------|--------3-3-----|----------|----------------------|
|-5-------5-5-|-5----5-----5-3-|-1--------|-3-3-3-3-3-3-3-3-3-3--|
|-------------|----------------|----------|----------------------|
|-------------|----------------|----------|----------------------|


  E S S S S S S S S S S S S S S   S S S S S S S S S S S S S S S S   W
|-------------------------------|---------------------------------|------|
|-------------------------------|---------------------------------|------|
|-5-5-5-5-5-5-5-5-5-5-5-5-5-5-5-|-5-5-5-5-5-5-5-5-5-5-5-5-5-5-5-5-|-0----|
|-------------------------------|---------------------------------|------|
|-------------------------------|---------------------------------|------|


  S S E E E S S E E E   E S S S S S S S S S S S S S S
|---------------------|-------------------------------|
|---------------------|-------------------------------|
|-1-1-1-0-1-3-3-3-1-3-|-------------------------------|
|---------------------|-1-1-1-1-1-1-1-1-1-1-1-1-1-1-1-|
|---------------------|-------------------------------|


  S S S S S S S S S S S S S S S S
|---------------------------------|
|---------------------------------|
|---------------------------------|
|-1-1-1-1-1-1-1-1-1-1-1-1-1-1-1-1-|
|---------------------------------|


  Q.   S S E E E E   Q.   E E E E E   E S S S S S S S S S S S S S S
|------------------|----------------|-------------------------------|
|------------------|----------------|-------------------------------|
|-1----1-1-1-1-0-1-|-3----3s5-3s5-3-|-0-0-0-0-0-0-0-0-0-0-0-0-0-0-0-|
|------------------|----------------|-------------------------------|
|------------------|----------------|-------------------------------|


  E S S S S S S S S S S S S S S   E H..         W
|-------------------------------|-------------|------||
|-------------------------------|-------------|------||
|-1-1-1-1-1-1-1-1-1-1-1-1-1-1-1-|-3-----------|------||
|-------------------------------|-------------|------||
|-------------------------------|-------------|------||


 Interlude 2
  H    H      H    H      H    H      H    H      H    H      H    H
|-----------|-----------|-----------|-----------|-----------|-----------|
|-----------|-----------|-----------|-3---------|-----------|-----------|
|-5---------|-3----5----|-5---------|------3----|-5---------|-3----5----|
|------6----|-----------|------6----|-----------|------6----|-----------|
|-----------|-----------|-----------|-----------|-----------|-----------|


  Q  E E +H       Q  E E +H       E H..         E E E E E E Q
|---------------|---------------|-------------|-----------------|
|---------------|---------------|-------------|-----------------|
|---------------|-3--3-3-(3)----|-------------|-------------3---|
|-1--1-1-(1)----|---------------|-1-----------|---6-5-3-5-6-----|
|---------------|---------------|-------------|-----------------|


  E H..         Q  Q  Q  Q    Q  E E E E E E   E E E E E Q.
|-------------|-------------|----------------|-----------------||
|-------------|-------------|----------------|-----------------||
|-1-----------|-1--0--1--3--|-0--0-0-0-0-0-0-|-0-0-0-0-0-------||
|-------------|-------------|----------------|-----------------||
|-------------|-------------|----------------|-----------------||


   Bridge
    E Q  Q  E Q    E Q  Q  E Q    H..       E   +W
||---------------|--------------|-------------|--------|
||o--------------|--------------|-------------|--------|
||---------------|--------------|-------------|--------|
||o--------------|--------------|-1---------3-|-(3)----|
||--3-3--3--3----|-3-3--3--3----|-------------|--------|


  E E E E +E  E Q    E Q  Q  E Q    H..       E   +Q.   H    +E
|------------------|--------------|-------------|------------------||
|------------------|--------------|-------------|-----------------o||
|------------------|--------------|-------------|------------------||
|------------------|--------------|-0---------1-|-(1)---3----(3)--o||
|-3-3-3-3-(3)-3----|-3-3--3--3----|-------------|------------------||


 Herman Solo 1
  E H..         W          E H..         H    E Q  E
|-------------|----------|-------------|--------------|
|-------------|----------|-------------|--------------|
|-5-----------|----------|-5-----------|--------3--5--|
|-------------|----------|-------------|--------------|
|-------------|----------|-------------|--------------|


  E H..         H.      E E   +H..       E   +H.      E E
|-------------|-------------|--------------|---------------||
|-------------|-------------|--------------|---------------||
|-5-----------|-------------|------------3-|-(3)------0-5--||
|-------------|---------6-6-|-(6)----------|---------------||
|-------------|-------------|--------------|---------------||


 Twin Solo 1
  +E  E E E E E E E   +E  E E E E E E E   Q  E E E E E E   +E  E E E E E E E
|-------------------|-------------------|----------------|--------------------|
|-------------------|-------------------|----------------|--------------------|
|-(5)-5-5-5-5-3-3-1-|-(1)-1-1-1-1-1-1-1-|-3--3-3-3-3-3-5-|-(5)-5-5-5-5-5-5-5--|
|-------------------|-------------------|----------------|--------------------|
|-------------------|-------------------|----------------|--------------------|


  Q  E E E E E E   +E  E E E E E E E   Q  E E E E E E   +E  E E E +Q   Q
|----------------|-------------------|----------------|--------------------|
|----------------|-------------------|----------------|--------------------|
|-5--5-5-5-3-3-1-|-(1)-1-1-1-1-1-1-1-|-3--3-3-3-3-3-0-|-(0)-0-0-3-(3)--3---|
|----------------|-------------------|----------------|--------------------|
|----------------|-------------------|----------------|--------------------|


  Q  E E E E E E   +E  E E E E E E E   Q  E E E E E E   +E  E E E E E E E
|----------------|-------------------|----------------|--------------------|
|----------------|-------------------|----------------|--------------------|
|-5--5-5-5-3-3-1-|-(1)-1-1-1-1-1-1-1-|-3--3-3-3-3-3-5-|-(5)-5-5-5-5-5-5-5--|
|----------------|-------------------|----------------|--------------------|
|----------------|-------------------|----------------|--------------------|


  Q  E E E E E E   +E  E E E E E E E   E E E E E E E E   E E E E E E E E
|----------------|-------------------|-----------------|------------------||
|----------------|-------------------|-----------------|------------------||
|-5--5-5-5-3-3-1-|-(1)-1-1-1-1-1-1-1-|-3-3-3-3-3-3-3-3-|-3-3-3-3-3-3-3-3--||
|----------------|-------------------|-----------------|------------------||
|----------------|-------------------|-----------------|------------------||


 Sam Solo 1
  Q  E E E E E E   +E  E E E E E E E   Q  E E E E E E   +E  E E E E E E E
|----------------|-------------------|----------------|--------------------|
|----------------|-------------------|----------------|--------------------|
|----------------|-------------------|----------------|--------------------|
|-5--5-5-5-3-3-1-|-(1)-1-1-1-1-1-1-1-|-3--3-3-3-3-3-5-|-(5)-5-5-5-5-5-5-5--|
|----------------|-------------------|----------------|--------------------|


  Q  E E E E E E   +E  E E E E E E E   Q  E E E E E E   E E E E E E E E
|----------------|-------------------|----------------|-----------------||
|----------------|-------------------|----------------|-----------------||
|----------------|-------------------|----------------|-----------------||
|-5--5-5-5-3-3-1-|-(1)-1-1-1-1-1-1-1-|-3--3-3-3-3-3-3-|-3-3-3-3-3-3-3-3-||
|----------------|-------------------|----------------|-----------------||


 Herman Solo 2
  E E E E E Q.     E E E E E Q.     E E E E E Q.     E E E E E Q.
|----------------|----------------|----------------|----------------|
|----------------|----------------|----------------|----------------|
|----------------|-3-3-3-3-3------|-5-5-5-5-5------|-----7---7-5----|
|-0-0-0-0-0------|----------------|----------------|-0-0---0--------|
|----------------|----------------|----------------|----------------|


  E E E E E Q.     E E E E E Q.     E E E E E Q.     E E Q  E E Q
|----------------|----------------|----------------|---------------||
|----------------|----------------|----------------|---------------||
|----------------|-3-3-3-3-3------|-5-5-5-5-5------|-2-2-2--5-5-5--||
|-0-0-0-0-0------|----------------|----------------|---------------||
|----------------|----------------|----------------|---------------||


 Twin Solo 2
  Q  E E E E E E   +E  E E E E E E E   Q  E E E E E E   +E  E E E E E E E
|----------------|-------------------|----------------|--------------------|
|----------------|-------------------|----------------|--------------------|
|-5--5-5-5-3-3-1-|-(1)-1-1-1-1-1-1-1-|-3--3-3-3-3-3-5-|-(5)-5-5-5-5-5-5-5--|
|----------------|-------------------|----------------|--------------------|
|----------------|-------------------|----------------|--------------------|


  Q  E E E E E E   +E  E E E E E E E   Q  E E E E E E   +E  E E E +Q   Q
|----------------|-------------------|----------------|--------------------|
|----------------|-------------------|----------------|--------------------|
|-5--5-5-5-3-3-1-|-(1)-1-1-1-1-1-1-1-|-3--3-3-3-3-3-0-|-(0)-0-0-3-(3)--3---|
|----------------|-------------------|----------------|--------------------|
|----------------|-------------------|----------------|--------------------|


  Q  E E E E E E   +E  E E E E E E E   Q  E E E E E E   +E  E E E E E E E
|----------------|-------------------|----------------|--------------------|
|----------------|-------------------|----------------|--------------------|
|-5--5-5-5-3-3-1-|-(1)-1-1-1-1-1-1-1-|-3--3-3-3-3-3-5-|-(5)-5-5-5-5-5-5-5--|
|----------------|-------------------|----------------|--------------------|
|----------------|-------------------|----------------|--------------------|


  Q  E E E E E E   +E  E E E E E E E   E E E E E E E E   E E E E E E E E
|----------------|-------------------|-----------------|------------------||
|----------------|-------------------|-----------------|------------------||
|-5--5-5-5-3-3-1-|-(1)-1-1-1-1-1-1-1-|-3-3-3-3-3-3-3-3-|-3-3-3-3-3-3-3-3--||
|----------------|-------------------|-----------------|------------------||
|----------------|-------------------|-----------------|------------------||


 Interlude 3
  E H.      E   W          E H..         S E S E E +H
|-------------|----------|-------------|------------------|
|-------------|----------|-------------|------------------|
|-------------|----------|-------------|-2---1---0-(0)----|
|-0---------0-|----------|-0-----------|------------------|
|-------------|----------|-------------|------------------|


  E H.      E   W          E H..         S E S E Q  E E E   E Q.   E Q.
|-------------|----------|-------------|------------------|----------------||
|-------------|----------|-------------|------------------|----------------||
|-------------|----------|-------------|-2---1---0----0---|-2------2-------||
|-0---------0-|----------|-0-----------|------------3---3-|----------------||
|-------------|----------|-------------|------------------|----------------||


 Twin Solo 3
  E S S S S S S S S S S S S S S
|-------------------------------|
|-------------------------------|
|-7-7-7-7-7-7-7-7-7-7-7-7-7-7-7-|
|-------------------------------|
|-------------------------------|


  S S E S S S S Q  Q    E S S S S E S S S S S S S S
|---------------------|-------------------------------|
|---------------------|-------------------------------|
|-7-7-7-7-7-7-7-------|-7-7-7-7-7-7-7-7-7-7-7-7-7-7---|
|---------------8--8--|-------------------------------|
|---------------------|-------------------------------|


  S S E S S S S Q  Q    E S S S S S S S S S S S S S S   S S E S S S S Q  Q
|---------------------|-------------------------------|---------------------|
|---------------------|-------------------------------|---------------------|
|-7-7-7-7-7-7-7-------|-7-7-7-7-7-7-7-7-7-7-7-7-7-7-7-|-7-7-7-7-7-7-7-------|
|---------------8--8--|-------------------------------|---------------8--8--|
|---------------------|-------------------------------|---------------------|


  E S S S S E S S S S S S S S   S S E S S S S Q  Q
|-----------------------------|---------------------|
|-----------------------------|---------------------|
|-7-7-7-7-7-7-7-7-7-7-7-7-7-7-|-7-7-7-7-7-7-7-------|
|-----------------------------|---------------8--8--|
|-----------------------------|---------------------|


  E S S S S S S S S S S S S S S
|-------------------------------|
|-------------------------------|
|-5-5-5-5-5-5-5-5-5-5-5-5-5-5-5-|
|-------------------------------|
|-------------------------------|


  S S E S S S S Q  Q    E S S S S E S S S S S S S S
|---------------------|------------------------------|
|---------------------|------------------------------|
|-5-5-5-5-5-5-5-------|-5-5-5-5-5-5-5-5-5-5-5-5-5-5--|
|---------------6--6--|------------------------------|
|---------------------|------------------------------|


  S S E S S S S Q  Q    E S S S S S S S S S S S S S S   S S E S S S S Q  Q
|---------------------|-------------------------------|-----------------------|
|---------------------|-------------------------------|-----------------------|
|-5-5-5-5-5-5-5-------|-5-5-5-5-5-5-5-5-5-5-5-5-5-5-5-|-5-5-5-5-5-5-5---------|
|---------------6--6--|-------------------------------|---------------6--6----|
|---------------------|-------------------------------|-----------------------|


  E S S S S E S S S S S S S S   S S E S S S S Q  Q
|-----------------------------|---------------------||
|-----------------------------|---------------------||
|-5-5-5-5-5-5-5-5-5-5-5-5-5-5-|-5-5-5-5-5-5-5-------||
|-----------------------------|---------------6--6--||
|-----------------------------|---------------------||


 Herman Solo 3
  E S S S S S S S S S S S S S S
|-------------------------------|
|-------------------------------|
|-7-7-7-7-7-7-7-7-7-7-7-7-7-7-7-|
|-------------------------------|
|-------------------------------|


  S S E S S S S Q  Q    E S S S S E S S S S S S S S
|---------------------|-------------------------------|
|---------------------|-------------------------------|
|-7-7-7-7-7-7-7-------|-7-7-7-7-7-7-7-7-7-7-7-7-7-7---|
|---------------8--8--|-------------------------------|
|---------------------|-------------------------------|


  S S E S S S S Q  Q    E S S S S S S S S S S S S S S   S S E S S S S Q  Q
|---------------------|-------------------------------|---------------------|
|---------------------|-------------------------------|---------------------|
|-7-7-7-7-7-7-7-------|-7-7-7-7-7-7-7-7-7-7-7-7-7-7-7-|-7-7-7-7-7-7-7-------|
|---------------8--8--|-------------------------------|---------------8--8--|
|---------------------|-------------------------------|---------------------|


  E S S S S S S S S S S S S S S   S S E S S S S Q  Q
|-------------------------------|---------------------|
|-------------------------------|---------------------|
|-7-7-7-7-7-7-7-7-7-7-7-7-7-7-7-|-7-7-7-7-7-7-7-------|
|-------------------------------|---------------8--8--|
|-------------------------------|---------------------|


  Q  E E +Q   E E   Q  E E +Q   E E   Q  E E +Q   Q    H    E Q.
|-----------------|-----------------|----------------|-------------||
|-----------------|-----------------|----------------|-------------||
|-7--7-5-(5)--5-5-|-3--3------------|----------------|-------------||
|-----------------|------3-(3)--3-3-|-5--5-3-(3)--5--|-7----7------||
|-----------------|-----------------|----------------|-------------||


 Sam Solo 2
  E S S S S S S S S S S S S S S
|-------------------------------|
|-------------------------------|
|-5-5-5-5-5-5-5-5-5-5-5-5-5-5-5-|
|-------------------------------|
|-------------------------------|


  E Q  E E E E E   E S S S S S S S S S S S S S S
|----------------|--------------------------------|
|----------------|--------------------------------|
|-5-5--5-5-3-1-3-|-5-5-5-5-5-5-5-5-5-5-5-5-5-5-5--|
|----------------|--------------------------------|
|----------------|--------------------------------|


  E Q  E E E Q    W          E E E E E E E E   W          W
|---------------|----------|-----------------|----------|------|
|----------3-3--|----------|-----------------|----------|------|
|-5-5--3s5------|-3--------|-3-3s1s3-5-3-1-3-|-1--------|-3----|
|---------------|----------|-----------------|----------|------|
|---------------|----------|-----------------|----------|------|


  E S S S S S S S S S S S S S S   E Q  E E E E E
|-------------------------------|----------------|
|-------------------------------|----------3-----|
|-5-5-5-5-5-5-5-5-5-5-5-5-5-5-5-|-5-5--3s5---5-3-|
|-------------------------------|----------------|
|-------------------------------|----------------|


  E S S S S S S S S S S S S S S   S S S S E E E E E E   W
|-------------------------------|---------------------|------|
|-------------------------------|-3-3-3-3-3---3-2-----|------|
|-5-5-5-5-5-5-5-5-5-5-5-5-5-5-5-|-----------5-----5-3-|-3----|
|-------------------------------|---------------------|------|
|-------------------------------|---------------------|------|


  E E E E E E E E   S S S S S S S S S S S S S S S S   S S E S S E S S E Q
|-----------------|---------------------------------|------------------------|
|-----------------|---------------------------------|------------------------|
|-3-3s5-3s5-3-0-3-|-1-1-1-1-3-3-1-1-5-5-1-1-3-3-1-1-|-3-3-3-3-3-3-3-3-3-3----|
|-----------------|---------------------------------|------------------------|
|-----------------|---------------------------------|------------------------|


  Q.   S S E E E E   Q  E E E +E  Q    S S S S S S S S S S S S S S S S
|------------------|-----------------|---------------------------------|
|------------------|-----------------|---------------------------------|
|-1----1-1-1-1-0-1-|-3--3-3-3-(3)-3--|-5-5-5-5-5-5-5-5-5-5-5-5-5-5-5-5-|
|------------------|-----------------|---------------------------------|
|------------------|-----------------|---------------------------------|


  S S S S S S S S S S S S S S S S
|---------------------------------|
|---------------------------------|
|---------------------------------|
|-6-6-6-6-6-6-6-6-6-6-6-6-6-6-6-6-|
|---------------------------------|


  E S S S S S S E S S S S S S   E S S S S S S E S S S S S S
|-----------------------------|------------------------------|
|-----------------------------|------------------------------|
|-3-3-3-3-3-3-3-3-3-3-3-3-3-3-|-3-3-3-3-3-3-3-3-3-3-3-3-3-3--|
|-----------------------------|------------------------------|
|-----------------------------|------------------------------|


  W          +W           H.      E E
|----------|------------|-------------|
|----------|------------|-------------|
|----------|------------|-1-------0-1-|
|-1--------|-(1)--------|-------------|
|----------|------------|-------------|


  H    +E  E E E   E E E Q  E E E   +W
|----------------|----------------|--------|
|----------------|----------------|--------|
|-3----(3)-3-5-3-|-5---5----3---1-|-(1)----|
|----------------|----------------|--------|
|----------------|----------------|--------|


  E S S S S S S S S S S S S S S
|-------------------------------|
|-------------------------------|
|-------------------------------|
|-3-3-3-3-3-3-3-3-3-3-3-3-3-3-3-|
|-------------------------------|


  S S S S S S S S S S S S S S S S   W          W
|---------------------------------|----------|------||
|---------------------------------|----------|------||
|---------------------------------|-5--------|-3----||
|-3-3-3-3-3-3-3-3-3-3-3-3-3-3-3-3-|----------|------||
|---------------------------------|----------|------||


 Herman Solo 4
  E H..         H    E Q.     E H..         H    E Q.
|-------------|-------------|-------------|--------------|
|-------------|-------------|-------------|--------------|
|-0-----------|--------0----|-5-----------|--------5-----|
|-------------|-------------|-------------|--------------|
|-------------|-------------|-------------|--------------|


  E H..         H    E Q.     E H..         W
|-------------|-------------|-------------|------|
|-------------|-------------|-------------|------|
|-3-----------|--------0----|-5-----------|------|
|-------------|-------------|-------------|------|
|-------------|-------------|-------------|------|


  E H..         H    E Q.     E H..         H.      Q
|-------------|-------------|-------------|-------------|
|-------------|-------------|-------------|-------------|
|-0-----------|--------0----|-5-----------|---------3---|
|-------------|-------------|-------------|-------------|
|-------------|-------------|-------------|-------------|


  E H..         E H..         E E E E E E E E   S S S S Q  S S S S Q
|-------------|-------------|-----------------|-------------------------||
|-------------|-------------|-----------------|-------------------------||
|-1-----------|-0-----------|-1---1-------1---|-3-3-3-3-3--3-3-3-3-3----||
|-------------|-------------|---------3-------|-------------------------||
|-------------|-------------|-----------------|-------------------------||


 Sam Solo 3
  H.      E E   Q.   E E E E E   W          S S E S S E S S E Q
|-------------|----------------|----------|----------------------|
|-------------|--------3-5-----|----------|----------------------|
|-5-------5-5-|-5----5-----5-3-|-1--------|-3-3-3-3-3-3-3-3-3-3--|
|-------------|----------------|----------|----------------------|
|-------------|----------------|----------|----------------------|


  E S S S S S S S S S S S S S S   S S S S S S S S S S S S S S S S   W
|-------------------------------|---------------------------------|------|
|-------------------------------|---------------------------------|------|
|-5-5-5-5-5-5-5-5-5-5-5-5-5-5-5-|-5-5-5-5-5-5-5-5-5-5-5-5-5-5-5-5-|-0----|
|-------------------------------|---------------------------------|------|
|-------------------------------|---------------------------------|------|


  S S E E E S S E E E   E S S S S S S S S S S S S S S
|---------------------|-------------------------------|
|---------------------|-------------------------------|
|-1-1-1-0-1-3-3-3-1-3-|-------------------------------|
|---------------------|-1-1-1-1-1-1-1-1-1-1-1-1-1-1-1-|
|---------------------|-------------------------------|


  S S S S S S S S S S S S S S S S
|---------------------------------|
|---------------------------------|
|---------------------------------|
|-1-1-1-1-1-1-1-1-1-1-1-1-1-1-1-1-|
|---------------------------------|


  Q.   S S E E E E   Q.   E E E E E   E S S S S S S S S S S S S S S
|------------------|----------------|-------------------------------|
|------------------|----------------|-------------------------------|
|-1----1-1-1-1-0-1-|-3----3s5-3s5-3-|-0-0-0-0-0-0-0-0-0-0-0-0-0-0-0-|
|------------------|----------------|-------------------------------|
|------------------|----------------|-------------------------------|


  E S S S S S S S S S S S S S S
|-------------------------------|
|-------------------------------|
|-1-1-1-1-1-1-1-1-1-1-1-1-1-1-1-|
|-------------------------------|
|-------------------------------|


  E S S S S S S S S S S S S S S   E S S S S E S S S S E S S
|-------------------------------|----------------------------||
|-------------------------------|----------------------------||
|-3-3-3-3-3-3-3-3-3-3-3-3-3-3-3-|-3-3-3-3-3-3-3-3-3-3-3-3-3--||
|-------------------------------|----------------------------||
|-------------------------------|----------------------------||


 Interlude
  W          +W           W          +W
|----------|------------|----------|------------|
|----------|------------|----------|------------|
|-5--------|-(5)--------|-3--------|-(3)--------|
|----------|------------|----------|------------|
|----------|------------|----------|------------|


  W          +W           W          +W
|----------|------------|----------|--------|
|----------|------------|----------|--------|
|-3--------|-(3)--------|-5--------|-(5)----|
|----------|------------|----------|--------|
|----------|------------|----------|--------|


  W          +W           W          +W
|----------|------------|----------|------------|
|----------|------------|----------|------------|
|-5--------|-(5)--------|-3--------|-(3)--------|
|----------|------------|----------|------------|
|----------|------------|----------|------------|


  W          +W           W          +W
|----------|------------|----------|--------||
|----------|------------|----------|--------||
|-3--------|-(3)--------|-5--------|-(5)----||
|----------|------------|----------|--------||
|----------|------------|----------|--------||


 Pre-Chorus 3
  E S S S S S S S S S S S S S S   E S S S S S S S S S S S S S S
|-------------------------------|-------------------------------|
|-------------------------------|-------------------------------|
|-0-0-0-0-0-0-0-0-0-0-0-0-0-0-0-|-1-1-1-1-1-1-1-1-1-1-1-1-1-1-1-|
|-------------------------------|-------------------------------|
|-------------------------------|-------------------------------|


  E S S S S S S S S S S S S S S   E S S S S S S S S S S S S S S
|-------------------------------|-------------------------------|
|-------------------------------|-------------------------------|
|-5-5-5-5-5-5-5-8-8-5-5-8-8-5-5-|-3-3-3-3-3-3-3-7-7-3-3-7-7-3-3-|
|-------------------------------|-------------------------------|
|-------------------------------|-------------------------------|


  W          W          E H..         W
|----------|----------|-------------|------||
|----------|----------|-------------|------||
|-1--------|-0--------|-1-----------|------||
|----------|----------|-------------|------||
|----------|----------|-------------|------||


 Chorus 3
  H.      E E   Q.   E E E E E   W          S S E S S E S S E Q
|-------------|----------------|----------|----------------------|
|-------------|--------3-3-----|----------|----------------------|
|-5-------5-5-|-5----5-----5-3-|-1--------|-3-3-3-3-3-3-3-3-3-3--|
|-------------|----------------|----------|----------------------|
|-------------|----------------|----------|----------------------|


  E S S S S S S S S S S S S S S   S S S S S S S S S S S S S S S S   W
|-------------------------------|---------------------------------|------|
|-------------------------------|---------------------------------|------|
|-5-5-5-5-5-5-5-5-5-5-5-5-5-5-5-|-5-5-5-5-5-5-5-5-5-5-5-5-5-5-5-5-|-0----|
|-------------------------------|---------------------------------|------|
|-------------------------------|---------------------------------|------|


  S S E E E S S E E E   E S S S S S S S S S S S S S S
|---------------------|-------------------------------|
|---------------------|-------------------------------|
|-1-1-1-0-1-3-3-3-1-3-|-------------------------------|
|---------------------|-1-1-1-1-1-1-1-1-1-1-1-1-1-1-1-|
|---------------------|-------------------------------|


  S S S S S S S S S S S S S S S S
|---------------------------------|
|---------------------------------|
|---------------------------------|
|-1-1-1-1-1-1-1-1-1-1-1-1-1-1-1-1-|
|---------------------------------|


  Q.   S S E E E E   Q.   E E E E E   E S S S S S S S S S S S S S S
|------------------|----------------|-------------------------------|
|------------------|----------------|-------------------------------|
|-1----1-1-1-1-0-1-|-3----3s5-3s5-3-|-0-0-0-0-0-0-0-0-0-0-0-0-0-0-0-|
|------------------|----------------|-------------------------------|
|------------------|----------------|-------------------------------|


  E S S S S S S S S S S S S S S   E H..         E H..
|-------------------------------|-------------|----------||
|-------------------------------|-------------|----------||
|-1-1-1-1-1-1-1-1-1-1-1-1-1-1-1-|-3-----------|-3--------||
|-------------------------------|-------------|----------||
|-------------------------------|-------------|----------||


 Outro
  E S S S S S S S S S S S S S S   S S S S S S S S S S S S S S S S
|-------------------------------|----------------------------------|
|-------------------------------|----------------------------------|
|-5-5-5-5-5-5-5-5-5-5-5-5-5-5-5-|-5-5-5-5-5-5-5-5-5-5-5-5-5-5-5-5--|
|-------------------------------|----------------------------------|
|-------------------------------|----------------------------------|


  E S S S S S S S S S S S S S S   S S S S S S S S S S S S S S S S
|-------------------------------|----------------------------------|
|-------------------------------|----------------------------------|
|-5-5-5-5-5-5-5-5-5-5-5-5-5-5-5-|-5-5-5-5-5-5-5-5-5-5-5-5-5-5-5-5--|
|-------------------------------|----------------------------------|
|-------------------------------|----------------------------------|


  E S S S S E S S S S S S S S   E S S E S S E S S E S S
|-----------------------------|-------------------------|
|-----------------------------|-------------------------|
|-5-5-5-5-5-5-5-5-5-5-5-5-5-5-|-5-5-5-5-5-5-5-5-5-5-5-5-|
|-----------------------------|-------------------------|
|-----------------------------|-------------------------|


  S S S S E E S S S S E E   S S S S E E S S S S E E   W          Q  Q  Q  Q
|-------------------------|-------------------------|----------|-------------|
|-------------------------|-------------------------|----------|-------------|
|-5-5-5-5-5---3-3-3-3-3---|-1-1-1-1-1---------------|-0--------|-0-----0--3--|
|-------------------------|-------------1-1-1-1-1---|----------|----3--------|
|-------------------------|-------------------------|----------|-------------|


  S S S S S S S S S S S S S S S S   S S S S S S S S S S S S S S S S
|---------------------------------|---------------------------------|
|-----------------3-3-3-3-3-3-3-3-|---------------------------------|
|-5-5-5-5-5-5-5-5-----------------|-3-3-3-3-3-3-3-3-1-1-1-1-0-0-0-0-|
|---------------------------------|---------------------------------|
|---------------------------------|---------------------------------|


  E H..         E Q.   +H
|-------------|----------------*|
|-------------|----------------*|
|-0-----------|-5-5----(5)\----*|
|-------------|----------------*|
|-------------|----------------*|



Duration Legend
---------------
W - whole; H - half; Q - quarter; E - 8th; S - 16th; T - 32nd; X - 64th; a - acciaccatura
+ - note tied to previous; . - note dotted; .. - note double dotted
Uncapitalized letters represent notes that are staccato (1/2 duration)
Irregular groupings are notated above the duration line
Duration letters will always appear directly above the note/fret number it represents the
duration for.  Duration letters with no fret number below them represent rests.  Multi-
bar rests are notated in the form Wxn, where n is the number of bars to rest for.  Low
melody durations appear below the staff

Tablature Legend
----------------
 h   - hammer-on
 p   - pull-off
 b   - bend
 pb  - pre-bend
 r   - bend release (if no number after the r, then release immediately)
 /\  - slide into or out of (from/to "nowhere")
 s   - legato slide
 S   - shift slide
 - natural harmonic
[n]  - artificial harmonic
n(n) - tapped harmonic
 ~   - vibrato
 tr  - trill
 T   - tap
 TP  - trem. picking
 PM  - palm muting
\n/  - tremolo bar dip; n = amount to dip
 \n  - tremolo bar down
 n/  - tremolo bar up
/n\  - tremolo bar inverted dip
 =   - hold bend; also acts as connecting device for hammers/pulls
 <> - volume swell (louder/softer)
 x   - on rhythm slash represents muted slash
 o   - on rhythm slash represents single note slash

Misc Legend
-----------
 |  - bar
||  - double bar
||o - repeat start
o|| - repeat end
*|  - double bar (ending)
 :  - bar (freetime)
 $  - Segno
 &  - Coda
Tempo markers -  = BPM(8/16=s8/s16), where s8 = swing 8ths, s16 = swing 16ths
            
Submit corrections


        Revolution Deathsquad lessons Hard to play? Try these video lessons and learn fast Revolution Deathsquad lessons
        
↑ Back to top | Tablatures and chords for acoustic guitar and electric guitar, ukulele, drums are parodies/interpretations of the original songs. You may use it for private study, scholarship, research or language learning purposes only