» » »

Dragonforce - Defenders Tabs

Artists:  A B C D E F G H I J K L M N O P Q R S T U V W X Y Z # 

Defenders Tabs

(ver. 1) Click to play this song!
Dragonforce
 Rating:
4/5 (4 votes)

 Defenders  lessons Tabs too difficult? Try these video lessons and learn fast
 
                Tuning: E Standard
Key: B Minor Phyrgian Mode

e|---------------------------------------------------------------------------|
B|---------------------------------------------------------------------------|
G|------------------------------------------------------------5/6------------|
D|--4--xxxxxxx--xxxxxxx--xxxxxxx-5--7--5--4--xxxxxxx--xxxxxxx-3/4-4/5-----5--|
A|--2--2222222--2222222--2222222-3--5--3--2--2222222--2222222-----2/3-4/5-3--|
E|--------------------------------------------------------------------2/3----|

e|---------------------------------------------------------------------------|
B|---------------------------------------------------------------------------|
G|------------------------------------------------------------6--------------|
D|--4--xxxxxxx--xxxxxxx--xxxxxxx-5--7--5--4--xxxxxxx--xxxxxxx-4-7-4-----x-x--|
A|--2--2222222--2222222--2222222-3--5--3--2--2222222--2222222---5-2-5-4-3-2-5|
E|------------------------------------------------------------------3-2-1-0-3|

            
Submit corrections


        Defenders  lessons Hard to play? Try these video lessons and learn fast Defenders  lessons
        
↑ Back to top | Tablatures and chords for acoustic guitar and electric guitar, ukulele, drums are parodies/interpretations of the original songs. You may use it for private study, scholarship, research or language learning purposes only