» » »

Doves - Pounding Bass

Artists:  A B C D E F G H I J K L M N O P Q R S T U V W X Y Z # 

Pounding Bass

(ver. 2) Click to play this song!
Doves
 Rating:
4/5 (4 votes)

 Pounding lessons Tabs too difficult? Try these video lessons and learn fast
 
                aVerse 1 (x4)
G|---------------------------------|
D|---------------------------------|
A|---------8-8-8-8-9-9-9-9---------|
E|-9-9-9-9-----------------9-9-9-9-|

Pre Chorus
G|--------------|
D|--------------|
A|--------------|
E|-11(x8)-4(x8)-|

1st Chorus    (x4)                    played between this and 2nd verse
G|----------------------------------------|------11----11----|
D|----------------------------------------|---11----11----11-|
A|-9-9-9-9--11-11-11-11--8-8-8-8--9-9-9-9-|-9----------------|
E|----------------------------------------|------------------|

Verse 2
G|---------------------------------|
D|---------------------------------|
A|---------8-8-8-8-9-9-9-9---------|
E|-9-9-9-9-----------------9-9-9-9-|

“I don’t mind if we never come home at all”
G|-------------------------------|
D|-------------------11----------|
A|-------8888-99-/11----11\------|
E|-9999---------------------9999-|

Then this again (x2)
G|---------------------------------|
D|---------------------------------|
A|---------8-8-8-8-9-9-9-9---------|
E|-9-9-9-9-----------------9-9-9-9-|

Repeat Pre Chorus

Chorus 2
G|---------------------------------------------------------------------------------------------|
D|-------------------------------------------------------------------------------------11------|
A|-9-9-9-9--11-11-11-11--8-8-8-8--9-9-9-9---9---9-9-9-9--11-11-11-11--8-8-8-8--9-9--11----11\--|
E|----------------------------------------9----------------------------------------------------|

              (x2)
G|----------------------------------------|-------------------|
D|----------------------------------------|-------------------|
A|-9-9-9-9--11-11-11-11--8-8-8-8--9-9-9-9-|-9-9-9-9-----------|
E|----------------------------------------|-----------2-2-2-2-|

Guitar Solo (x4)
G|---------------------|
D|---------------------|
A|------8888-9999------|
E|-9999-----------9999-|

Bridge   rest then
     2.57 - 3.03
G|-------------------------------------------|
D|------------------11(x10)-11-10-11-10------|
A|--------------------------------------11-9-|
E|-9-9-9-9-9-9-9-9---------------------------|

G|-------------------------|
D|-------------------------|
A|-------------------------|
E|-11(x8)-4-4-4-4-44444444-|

Chorus
G|--------------------------------------------------------------------------------------------|
D|----------------------------------------------------------------------------------11-10-----|
A|-9-9-9-9--11-11-11-11--8-8-8-8--9-9-9-9-----9-9-9-9--11-11-11-11--8-8-8-8--9-9/11-------11--|
E|----------------------------------------9---------------------------------------------------|

G|---------------------------------------------------------------------------|
D|---------------------------------------------------------------------------|
A|-9-9-9-9--11-11-11-11--8-8-8-8--9-9-9-9-----9-9-9-9--11-11-11-11--8-8-8-8--|
E|----------------------------------------9----------------------------------|

Outro
      (x2)
G|------11----11----|
D|---11----11----11-|
A|-9----------------|
E|------------------|

G|---|
D|---|
A|---|
E|-2~|
            
Submit corrections


        Pounding lessons Hard to play? Try these video lessons and learn fast Pounding lessons
        
↑ Back to top | Tablatures and chords for acoustic guitar and electric guitar, ukulele, drums are parodies/interpretations of the original songs. You may use it for private study, scholarship, research or language learning purposes only