» » »

Doves - Kingdom Of Rust Tabs

Artists:  A B C D E F G H I J K L M N O P Q R S T U V W X Y Z # 

Kingdom Of Rust Tabs

(ver. 1) Click to play this song!
Doves
 Rating:
4/5 (6 votes)

 Kingdom Of Rust lessons Tabs too difficult? Try these video lessons and learn fast
 
                -------------------------------------------------------------------------------
-------------------------------------------------------------------------------
(THIS TAB IS ONLY THE LEAD PARTS THAT GO OVER THE CHORUS)


Tuning: Standard eBGDAE

(THIS TAB IS ONLY THE LEAD PARTS THAT GO OVER THE CHORUS)

First Chorus
e|5-6-3-5-3h5----5-6-3-5-3h5-------------------------------------------------|
B|------------------------------4-6-4-3-4----4-6-4\--------------------------|
G|---------------------------------------------------------------------------|
D|---------------------------------------------------------------------------|
A|---------------------------------------------------------------------------|
E|---------------------------------------------------------------------------|

Second Chorus
e|5-6-3-5-3h5----5-6-6-5-3---------------------------------------------------|
B|-------------------------6----4-6-3-4-3h4----4-6-3-4-3---------------------|
G|---------------------------------------------------------------------------|
D|---------------------------------------------------------------------------|
A|---------------------------------------------------------------------------|
E|---------------------------------------------------------------------------|

e|----------------------------5-6-3-5-3h5----5-6-3-5-3h5------------------------|
B|3-4-1-1-3----3-4-4-3-1--------------------------------------------------------|
G|-----------------------3------------------------------------------------------|
D|------------------------------------------------------------------------------|
A|------------------------------------------------------------------------------|
E|------------------------------------------------------------------------------|

e|---------------------------------------------------------------------------|
B|4-6-3-4-3h4----4-6-3-4-4\--------------------------------------------------|
G|-----------------------------3-5-2-3\-(Drum Roll)--------------------------|
D|---------------------------------------------------------------------------|
A|---------------------------------------------------------------------------|
E|---------------------------------------------------------------------------|
| /  slide up
| \  slide down
| h  hammer-on
| p  pull-off
| ~  vibrato
| +  harmonic
| x  Mute note
===============================================================================
            
Submit corrections


        Kingdom Of Rust lessons Hard to play? Try these video lessons and learn fast Kingdom Of Rust lessons
        
↑ Back to top | Tablatures and chords for acoustic guitar and electric guitar, ukulele, drums are parodies/interpretations of the original songs. You may use it for private study, scholarship, research or language learning purposes only